Codinome Beija-Flor

Cazuza

A
123
X02220
A4
123
X02230
A4/E
123
002230
A7M(9)
12
X02100
Bm7(11)
123
X20230
Bm7(5-)
1234
X2323X
C#m7(11)
3
X44454
C7M
12
X3200X
D/E
1234
XX2232
D5(6/9)
1
XX0200
D5(7M/9)
12
XX0220
E
123
022100
E/D
1234
X5X454
E4
123
022200
Em/F
1
1XX000
Em/G
1234
3X245X
F#m7
1234
2X222X
F#m7(11)
123
2X220X
F/G
1234
3X321X
F7M
1234
1X221X
G6
1234
3X243X
G7(9)
123
3X320X
G7M
1234
3X443X
Tom: G
[Intro] A7M(9)  F#m7(11)  D5(6/9)  A4/E

Parte 1 de 2

#1t1##1t2#E|-4--5--0---4--5--0----------------------------------|
B|-0--2--0---0--2--0----------------------------------|
G|----------------------------------------------------|
D|----------------------------------------------------|
A|-0-----0--------------------------------------------|
E|-----------2-----2----------------------------------|#/1t2##/1t1#

Parte 2 de 2

#2t1##2t2#E|-4--5--0-----------0--------------------------------|
B|-0--2--0--3-----------3-----------------------------|
G|----------2-----2--------2-----2--------------------|
D|-0-----0--2-----------------2-----------------------|
A|----------------------------------------------------|
E|----------0--0----0---------------------------------|#/2t2##/2t1#

(Variação)

Parte 1 de 2

#3t1##3t2#E|-4-5--0--4--4--5--0--4------------------------------|
B|-0-2--0--0--0--2--0--0------------------------------|
G|----------------------------------------------------|
D|----------------------------------------------------|
A|-0----0---------------------------------------------|
E|------------2-----2---------------------------------|#/3t2##/3t1#

Parte 2 de 2

#4t1##4t2#E|-4--5--0--4--0--------0-----------------------------|
B|-0--2--0--0--3-----------3--------------------------|
G|-------------2--2---2-------2-----------------------|
D|-0-----0-----2----2------------2--------------------|
A|----------------------------------------------------|
E|-------------0--------------------------------------|#/4t2##/4t1#

[Primeira Parte]

Parte 1 de 4

#5t1#   A     A7M(9)  A       A7M(9) A
#5t2#E|-----------------------------------------------------|
B|-2---2---0---0---2---2---0------2--------------------|
G|-2---2---1---1---2---2---1------2--------------------|
D|-----------------------------------------------------|
A|-0-0---0---0---0---0---0------0---0------------------|
E|-----------------------------------------------------|#/5t2##/5t1#

Parte 2 de 4

#6t1#   D5(7M/9)         E/D  F#m7
#6t2#E|-----------------------------------------------------|
B|-2-----2-------2--0---------------2------------------|
G|-2-----2----2-----1----2-2-1-2--------2--------------|
D|-0--0-----0-------0----2--------4---2----------------|
A|-----------------------------------------------------|
E|-----------------------2-----------------------------|#/6t2##/6t1#

Parte 3 de 4

#7t1#   D5(7M/9)  E/D     D5(7M/9)  E/D
#7t2#E|-0---0-------0---0---0---0-----0---0-----------------|
B|-2---2-------0---0---2---2-----0---0-----------------|
G|-2---2-------1---1---2---2-----1---1-----------------|
D|-0-0-------0---0---0---0-----0---0---0---------------|
A|-----------------------------------------------------|
E|-----------------------------------------------------|#/7t2##/7t1#

Parte 4 de 4

#8t1#   Bm7(11) C#m7(11) D5(7M/9) D/E  F/G    G7(9)
#8t2#E|-0-------2--------0--------2-------------------------|
B|-3-------5--------2--------3--------1--0-------------|
G|-2-------4--------2--------2--------2--2-------------|
D|------------------0--------2------3----3-------------|
A|-2-------4-------------------------------------------|
E|--------------------------------3------3-------------|#/8t2##/8t1#

A             A7M(9)
  Pra que mentir
               A   A7M(9)  A
Fingir que perdoou
    D5(7M/9)     E/D        F#m7
Tentar ficar amigos sem rancor
  D5(7M/9)   E/D
A emoção acabou
D5(7M/9)          E/D
 Que coincidência é o amor
Bm7(11)   C#m7(11)  D5(7M/9)  D/E    F/G  G7(9)
 A nossa música    nunca     mais tocou

      A     A7M(9)           A  A7M(9)  A
Pra que usar  de tanta educação
     D5(7M/9)    E/D         F#m7
Pra destilar terceiras intenções
    D5(7M/9)       E/D
Desperdiçando meu mel
D5(7M/9)         E/D
  Devagarzinho flor em flor
Bm7(11)     C#m7(11)    D5(7M/9)
  Entre os meus     inimigos
 D/E    F/G  G7(9)
Beija-flor

[Segunda Parte]

Parte 1 de 2

#9t1#   C7M             Bm7(5-) E4 E
#9t2#E|-0---0---0---0----------------------------------|
B|-0---0---0---0---3---3--------0-----------------|
G|-0---0---0---0---2---2---2----1-----------------|
D|-----------------3---3---2----2-----------------|
A|-3-3---3---3---3-2-2---2-2----------------------|
E|-------------------------0--0---0---------------|#/9t2##/9t1#

Parte 2 de 2

#10t1#   F7M     G6      A4    A
#10t2#E|-0---0---0---0----------------------------------|
B|-1---1---3---3---3---3---2---2------------------|
G|-2---2---4---4---2---2---2---2------------------|
D|-3-3---3-5-5---5-2---2---2---2------------------|
A|-----------------0-0---0---0---0----------------|
E|------------------------------------------------|#/10t2##/10t1#

C7M                         Bm7(5-) E4  E
  Eu protegi teu nome por amor
F7M          G6          A4 A
  Em um codinome beija-flor
 C7M                       Bm7(5-)  E4  E
Não responda nunca   meu amor,     nunca!
      F7M           G6         A4  A
Pra qualquer um na rua beija-flor

[Terceira Parte]

Parte 1 de 4

#11t1#   F7M   Em/F    F7M     Em/F
#11t2#E|-0---0---0---0---0---0---0---0-----------------|
B|-1---1---0---0---1---1---0---0-----------------|
G|-2---2---0---0---2---2---0---0-----------------|
D|-3-3---3---3---3---3---3---3---3---------------|
A|-----------------------------------------------|
E|-----------------------------------------------|#/11t2##/11t1#

Parte 2 de 4

#12t1#   F7M     Em/G     A4    A
#12t2#E|-0---0---0---0---------------------------------|
B|-1---1---0---0----3---3---2---2----------------|
G|-2---2---0---0----2---2---2---2----------------|
D|---3---3----------2---2---2---2----------------|
A|------------------0-0---0---0---0--------------|
E|---------3-3---3-------------------------------|#/12t2##/12t1#

Parte 3 de 4

#13t1#   F7M   Em/F    F7M     Em/F
#13t2#E|-0---0---0---0---0---0---0---0-----------------|
B|-1---1---0---0---1---1---0---0-----------------|
G|-2---2---0---0---2---2---0---0-----------------|
D|-3-3---3---3---3---3---3---3---3---------------|
A|-----------------------------------------------|
E|-----------------------------------------------|#/13t2##/13t1#

Parte 4 de 4

#14t1#   F7M     G7M
#14t2#E|-0-------2--------------------------------------|
B|-1-------3--------------------------------------|
G|-2-------4--------------------------------------|
D|-3-------5--------------------------------------|
A|------------------------------------------------|
E|------------------------------------------------|#/14t2##/14t1#

F7M                Em/F
  Que só eu que podia
F7M                      Em/F
  Dentro da tua orelha fria
   F7M                Em/G    A4  A
Dizer segredos de liquidificador
   F7M            Em/F
Você sonhava acordada
F7M                     Em/F
Um jeito de não sentir dor
     F7M
Prendia o choro
     Em/G           A4  A
E aguava o bom do amor
     F7M
Prendia o choro
     G7M            
E aguava o bom do amor

[Final] A7M(9)  F#m7(11)  D5(6/9)  A4/E

Parte 1 de 2

#15t1##15t2#E|-4--5--0---4--5--0------------------------------|
B|-0--2--0---0--2--0------------------------------|
G|------------------------------------------------|
D|------------------------------------------------|
A|-0-----0----------------------------------------|
E|-----------2-----2------------------------------|#/15t2##/15t1#

Parte 2 de 2

#16t1##16t2#E|-4--5--0-----------0----------------------------|
B|-0--2--0--3-----------3-------------------------|
G|----------2-----2--------2-----2----------------|
D|-0-----0--2-----------------2-------------------|
A|------------------------------------------------|
E|----------0--0----0-----------------------------|#/16t2##/16t1#
Composição: Cazuza / Ezequiel Neves / Reinaldo AriasColaboração e revisão: Lucas KappaunMarcos MotaTisgo coutoAlder Limae mais 3
Videoaula Codinome Beija-Flor (aula de violão completa)