busca

Codinome Beija-Flor

Cazuza

Tom: F#m
[Intro] A7M(9)  F#m7(11)  D5(6/9)  A4/E

Parte 1 de 2

E|-4--5--0---4--5--0----------------------------------|
B|-0--2--0---0--2--0----------------------------------|
G|----------------------------------------------------|
D|----------------------------------------------------|
A|-0-----0--------------------------------------------|
E|-----------2-----2----------------------------------|

Parte 2 de 2

E|-4--5--0-----------0--------------------------------|
B|-0--2--0--3-----------3-----------------------------|
G|----------2-----2--------2-----2--------------------|
D|-0-----0--2-----------------2-----------------------|
A|----------------------------------------------------|
E|----------0--0----0---------------------------------|

(Variação)

Parte 1 de 2

E|-4-5--0--4--4--5--0--4------------------------------|
B|-0-2--0--0--0--2--0--0------------------------------|
G|----------------------------------------------------|
D|----------------------------------------------------|
A|-0----0---------------------------------------------|
E|------------2-----2---------------------------------|

Parte 2 de 2

E|-4--5--0--4--0--------0-----------------------------|
B|-0--2--0--0--3-----------3--------------------------|
G|-------------2--2---2-------2-----------------------|
D|-0-----0-----2----2------------2--------------------|
A|----------------------------------------------------|
E|-------------0--------------------------------------|

[Primeira Parte]

Parte 1 de 4

   A     A7M(9)  A       A7M(9) A
E|-----------------------------------------------------|
B|-2---2---0---0---2---2---0------2--------------------|
G|-2---2---1---1---2---2---1------2--------------------|
D|-----------------------------------------------------|
A|-0-0---0---0---0---0---0------0---0------------------|
E|-----------------------------------------------------|

Parte 2 de 4

   D5(7M/9)         E/D  F#m7
E|-----------------------------------------------------|
B|-2-----2-------2--0---------------2------------------|
G|-2-----2----2-----1----2-2-1-2--------2--------------|
D|-0--0-----0-------0----2--------4---2----------------|
A|-----------------------------------------------------|
E|-----------------------2-----------------------------|

Parte 3 de 4

   D5(7M/9)  E/D     D5(7M/9)  E/D
E|-0---0-------0---0---0---0-----0---0-----------------|
B|-2---2-------0---0---2---2-----0---0-----------------|
G|-2---2-------1---1---2---2-----1---1-----------------|
D|-0-0-------0---0---0---0-----0---0---0---------------|
A|-----------------------------------------------------|
E|-----------------------------------------------------|

Parte 4 de 4

   Bm7(11) C#m7(11) D5(7M/9) D/E  F/G    G7(9)
E|-0-------2--------0--------2-------------------------|
B|-3-------5--------2--------3--------1--0-------------|
G|-2-------4--------2--------2--------2--2-------------|
D|------------------0--------2------3----3-------------|
A|-2-------4-------------------------------------------|
E|--------------------------------3------3-------------|

A             A7M(9)
  Pra que mentir
               A   A7M(9)  A
Fingir que perdoou
    D5(7M/9)     E/D        F#m7
Tentar ficar amigos sem rancor
  D5(7M/9)   E/D
A emoção acabou
D5(7M/9)          E/D
 Que coincidência é o amor
Bm7(11)   C#m7(11)  D5(7M/9)  D/E    F/G  G7(9)
 A nossa música    nunca     mais tocou

      A     A7M(9)           A  A7M(9)  A
Pra que usar  de tanta educação
     D5(7M/9)    E/D         F#m7
Pra destilar terceiras intenções
    D5(7M/9)       E/D
Desperdiçando meu mel
D5(7M/9)         E/D
  Devagarzinho flor em flor
Bm7(11)     C#m7(11)    D5(7M/9)
  Entre os meus     inimigos
 D/E    F/G  G7(9)
Beija-flor

[Segunda Parte]

Parte 1 de 2

   C7M             Bm7(5-) E4 E
E|-0---0---0---0----------------------------------|
B|-0---0---0---0---3---3--------0-----------------|
G|-0---0---0---0---2---2---2----1-----------------|
D|-----------------3---3---2----2-----------------|
A|-3-3---3---3---3-2-2---2-2----------------------|
E|-------------------------0--0---0---------------|

Parte 2 de 2

   F7M     G6      A4    A
E|-0---0---0---0----------------------------------|
B|-1---1---3---3---3---3---2---2------------------|
G|-2---2---4---4---2---2---2---2------------------|
D|-3-3---3-5-5---5-2---2---2---2------------------|
A|-----------------0-0---0---0---0----------------|
E|------------------------------------------------|

C7M                         Bm7(5-) E4  E
  Eu protegi teu nome por amor
F7M          G6          A4 A
  Em um codinome beija-flor
 C7M                       Bm7(5-)  E4  E
Não responda nunca   meu amor,     nunca!
      F7M           G6         A4  A
Pra qualquer um na rua beija-flor

[Terceira Parte]

Parte 1 de 4

   F7M   Em/F    F7M     Em/F
E|-0---0---0---0---0---0---0---0-----------------|
B|-1---1---0---0---1---1---0---0-----------------|
G|-2---2---0---0---2---2---0---0-----------------|
D|-3-3---3---3---3---3---3---3---3---------------|
A|-----------------------------------------------|
E|-----------------------------------------------|

Parte 2 de 4

   F7M     Em/G     A4    A
E|-0---0---0---0---------------------------------|
B|-1---1---0---0----3---3---2---2----------------|
G|-2---2---0---0----2---2---2---2----------------|
D|---3---3----------2---2---2---2----------------|
A|------------------0-0---0---0---0--------------|
E|---------3-3---3-------------------------------|

Parte 3 de 4

   F7M   Em/F    F7M     Em/F
E|-0---0---0---0---0---0---0---0-----------------|
B|-1---1---0---0---1---1---0---0-----------------|
G|-2---2---0---0---2---2---0---0-----------------|
D|-3-3---3---3---3---3---3---3---3---------------|
A|-----------------------------------------------|
E|-----------------------------------------------|

Parte 4 de 4

   F7M     G7M
E|-0-------2--------------------------------------|
B|-1-------3--------------------------------------|
G|-2-------4--------------------------------------|
D|-3-------5--------------------------------------|
A|------------------------------------------------|
E|------------------------------------------------|

F7M                Em/F
  Que só eu que podia
F7M                      Em/F
  Dentro da tua orelha fria
   F7M                Em/G    A4  A
Dizer segredos de liquidificador
   F7M            Em/F
Você sonhava acordada
F7M                     Em/F
Um jeito de não sentir dor
     F7M
Prendia o choro
     Em/G           A4  A
E aguava o bom do amor
     F7M
Prendia o choro
     G7M            
E aguava o bom do amor

[Final] A7M(9)  F#m7(11)  D5(6/9)  A4/E

Parte 1 de 2

E|-4--5--0---4--5--0------------------------------|
B|-0--2--0---0--2--0------------------------------|
G|------------------------------------------------|
D|------------------------------------------------|
A|-0-----0----------------------------------------|
E|-----------2-----2------------------------------|

Parte 2 de 2

E|-4--5--0-----------0----------------------------|
B|-0--2--0--3-----------3-------------------------|
G|----------2-----2--------2-----2----------------|
D|-0-----0--2-----------------2-------------------|
A|------------------------------------------------|
E|----------0--0----0-----------------------------|

Clipes