busca

Down Em Mim

Cazuza

G|---------------------
D|---------------------   Intro
A|---------0--3---0----
E|-0-0--3--------------
B|---------------------


G|--------------------------------------------------
D|------------7-6-5---------------------------------
A|-0--3--5-7---------------5------------------------     Parte 1
E|-------------------3--5-----3-0------3-5--4-3-----
B|---------------------------------4-3--------------


G|--------------------------------------------------
D|------------7-6-5---------------------------------
A|-0--3--5-7---------------5------------------------     Parte 2
E|-------------------3--5-----3-0-0-0--0-1-1-1-1----
B|--------------------------------------------------

Clipes