busca

Guerra Civil

Cazuza

Tom: D
[Intro]

E|-5-7-------5-5-7-------5-5-7-------5-5-7-------|
A|-----5-7-7-------5-7-7-------5-7-7-------5-7-7-|
D|-----------------------------------------------|
G|-----------------------------------------------|
B|-----------------------------------------------|
E|-----------------------------------------------|

                Em  D
Paro no meio da rua
         Em         D
Me atropelei demais
                   Em    D
Alguém pergunta as horas
                  Em  D
Ou então vai me matar

C
Freiras lésbicas assassinas
Bm
Fadas sensuais
Am                      D
Me vigiam do décimo andar

Tem sempre um lugar

Aonde você não está

Tem sempre um lugar

Aonde você não está

                Em               D
Paro no meio da noite (da noite)
              Em  D
Procuro a tua mão
               Em               D
Você tá tão distante (distante)
                     Em  D
Num sonho que eu nem sei
C
O pensamento é a guerra
Bm
A guerra civil do ser
Am
Entro no teu corpo
D
Quero te conhecer

Tem sempre um lugar

Aonde você não está
                F
Tem sempre um lugar

Aonde você não está

E|-----7-5-3-5-3-5-3-5-7-----7-5-3-|
A|-7-5-------------------7-5-------|
D|---------------------------------|
G|---------------------------------|
B|---------------------------------|
E|---------------------------------|

                Em   D
Paro no meio de tudo
                         Em   D
Que eu tive e que eu não tive
                 Em   D
Já me esqueci de tudo
                    Em    D
De tudo o que eu te disse

C
Foram frases decoradas
Bm
Tristes e sagradas
Am                         D
Feito missas toda a madrugada

Tem sempre um lugar

Aonde você não está

Tem sempre um lugar

Aonde você não está

C
O pensamento é a guerra
Bm
A guerra civil do ser
Am
Entro no teu corpo
D
Quero te conhecer

Tem sempre um lugar

Aonde você não está
                F
Tem sempre um lugar

Aonde você não está

         Am
Não está!

Clipes

Cifra Club Pro

Aproveite o Cifra Club com benefícios exclusivos e sem anúncios
7 dias grátis
Cifra Club Pro
Aproveite o Cifra Club com benefícios exclusivos e sem anúncios
7 dias grátis