Maior Abandonado

Cazuza

A
123
X02220
B
234
X24442
C#m
234
X46654
E
123
022100
F#m
34
244222
G#m
34
466444
Tom: G
[Intro]

#1t1##1t2#E|------------------------------------------------------------------|
B|------------------------------------------------------------------|
G|------------------------------------------------------------------|
D|------3--0-----0-3------3--0------0-3------3--0---0---------3--5--|
A|--3---------3--------3---------3--------3-------3---3-3-0---1--3--|
E|--1------------------1------------------1-------------------------|#/1t2##/1t1#

[Solo]

#2t1##2t2#E|-------------------------------------------------------|
B|-------------------------------------------------------|
G|-------------------------------------------------------|
D|-------------------------------------------------------|
A|--7-7-5---5-7---7-7-5---5-7---7-7-5---5-7--5-2-2/4-2---|
E|--------7-------------7-------------7------------------|#/2t2##/2t1#

E               C#m              B                     C#m  B
  Eu tô perdido, sem pai nem mãe, bem na porta da sua ca---sa
E               C#m                             C#m B
  Eu tô pedindo, a tua mão, e um pouquinho do bra--ço
A              G#m          F#m  B  A  F#m
  Migalhas dormidas do teu pão
A           G#m           F#m
  Raspas e restos me interessam
A              G#m        F#m  B
  Pequenas porções de ilusão

#3t1#Riff 1
#3t2#E|------------------|
B|--5/7-7-5-4-0-4/5-|
G|------------------|
D|------------------|
A|------------------|
E|------------------|#/3t2##/3t1#

A              G#m          F#m            C#m  B
  Mentiras sinceras me interessam, me interes--sam

E               C#m        B                       C#m  B
  Eu tô pedindo, a tua mão, me leve para qualquer la--do
E                C#m         B                C#m  B
  Só um pouquinho de proteção ao maior abandona---do
A      G#m        F#m    B  A  F#m
  Teu corpo com amor ou não

#4t1#Riff 1
#4t2#E|------------------|
B|--5/7-7-5-4-0-4/5-|
G|------------------|
D|------------------|
A|------------------|
E|------------------|#/4t2##/4t1#

A           G#m           F#m
  Raspas e restos me interessam
A         G#m         F#m
  Me ame como a um irmão

#5t1#Riff 2
#5t2#E|--14--12-11--|
B|-------------|
G|-------------|
D|-------------|
A|-------------|
E|-------------|#/5t2##/5t1#

A              G#m          F#m            B
  Mentiras sinceras me interessam, me interessam

[Solo] E  C#m  B

#6t1##6t2#E|------------------------------------------------------|
B|--5-5-3---3-5---5-5-3---3-5---5-5-3---3-5--3----------|
G|--------4-------------4-------------4--------4--4/6-4-|
D|------------------------------------------------------|
A|------------------------------------------------------|
E|------------------------------------------------------|#/6t2##/6t1#

A              G#m          F#m  B  A  F#m
  Migalhas dormidas do teu pão
A           G#m           F#m
  Raspas e restos me interessam
A              G#m        F#m  B  A  F#m
  Pequenas porções de ilusão

#7t1#Riff 1
#7t2#E|------------------|
B|--5/7-7-5-4-0-4/5-|
G|------------------|
D|------------------|
A|------------------|
E|------------------|#/7t2##/7t1#

A              G#m          F#m            B
  Mentiras sinceras me interessam, me interessam

E              C#m       B                      C#m  B
  Estou pedindo a tua mão me leve pra qualquer la---do
E                C#m         B                C#m  B
  Só um pouquinho de proteção ao maior abandona---do

[Final] E  C#m  B  E
Composição: CazuzaColaboração e revisão: Lucas Kappaunwagner ageVinícius Collaço