busca

O Tempo Não Para

Cazuza

inicio fica assim ate o refrão:

-----4-----4-----4--------4-
---------5----6------7------
-----------------3------5---
----------------------------

{{Refrão}}

-----------7---------7--------7
-----------------8---------8---
-4------5-6-------------6.6----
--------------------------------

Clipes

Cifra Club Pro

Aproveite o Cifra Club com benefícios exclusivos e sem anúncios
7 dias grátis
Cifra Club Pro
Aproveite o Cifra Club com benefícios exclusivos e sem anúncios
7 dias grátis