busca

O Tempo Não Para

Cazuza

(intro)

G-------------------------------------------------------------------------------
D-------------------------------------------------------------------------------
A-------------------------------------------------------------------------------
E--0~~~~0~~~~0-12^^^^^00~~~x7-x12~~00~~~~x7-x12~~00~~~~x7-x12~~00~~~~x7-12--0---

(parte 1)                                 1°variação            2°variação
G--------------------------------------  -9-7---9-7---------  ------------------
D--------------------------------------  -----9----9^^2-----  ------------------
A------------------5~~3-5-5------------  -------------------  --7-9-7--5-7-5^^--
E--0~~~~0-3-5~~3-5----------0~~~~0-3..:  ---------------0..:  -0-----0----------

(parte2)
G----------------------------------------------------------------------------------
D----------------------------------------------------------------------------------
A------------------------------------------5-5-3-5-3-5-5-3-5-3-7-7-5-7-5-7-5-------
E--0-0-3-0-3-0-0-3-0-3-5-5-3-5-3-5-5-3-5-3----------------------------------7-5-3~~

(refrão)
G-------------------------------------------------------------------------------------------------
D-------------------------------------------------------------------------------------------------
A---------------------------5~~6~~^^^^3~~0-3-3-2-5--------------------------5~~6~~^^^3-0-3-3-5~-6~
E--3~~0-3-3-0-3-5-3-5-5-3-5------------------------3~~0-3-3-0-3-5-3-5-5-3-5-----------------------

(solo base) G Am D D# C Em Am D D# C
G-------------------------------------------------------------------------------
D-------------------------------------------------------------------------------
A-------------------3---5~~6~~^^3-2-3~~------------------------3--5~~6~~^^3-2-3-
E--3~0-3-3^5-3-5-5-5--5-----------------0~~0-0~~0-3-5~~3-5-5-5--5---------------

~:mantem a nota
^:ligadura

Clipes