busca

Preciso Dizer Que Te Amo

Cazuza

Tom: Bb (forma dos acordes no tom de A) Capotraste na 1ª casa
[Intro]

    Am7             G#4+(7M)
E|----------------------------------------------------|
B|--------1\3-------3---------------------------------|
G|--------0---------0---------------------------------|
D|-----2----------------------------------------------|   
A|-0------------4-------------------------------------|
E|----------------------------------------------------|

    Am7             G#4+(7M)
E|----------------------------------------------------|
B|--------1\3-------3---------------------------------|
G|--------0---------0---------------------------------|
D|-----2----------------------------------------------|   
A|-0------------4-------------------------------------|
E|----------------------------------------------------|

          E/G#
E|----------------------------------------------------|
B|--------5--------5----------------------------------|
G|--------4--------4----------------------------------|    
D|-----2-----2--------2-------------------------------|
A|-4------------4-------------------------------------|
E|----------------------------------------------------|

          E/G#
E|----------------------------------------------------|
B|--------5--------5----------------------------------|
G|--------4--------4----------------------------------|    
D|-----2-----2--------2-------------------------------|
A|-4------------4-------------------------------------|
E|----------------------------------------------------|

Am7         G#4+(7M) Am7 G#4+(7M) E/G#
  Quando a gente conversa            contando casos, besteiras
 Am7      G#4+(7M)   Am7  G#4+(7M) E/G#
  Quanta coisa em comum,             deixando escapar segredos
Fm6                Bb7(9)               C7M       C9
 E eu não sei que hora dizer, me dá um medo, que medo
Fm6                  Bb7(9)             C7M                     C9
 É que eu preciso dizer que eu te amo,     te ganhar ou perder sem engano
Fm6              Bb7(9)               Am7     G#4+(7M)  Am7  G#4+(7M)
 É eu preciso dizer que eu te amo,     tanto

Am7       G#4+(7M) Am7     G#4+(7M) E/G#
 E até o tempo passa arrastado          só para eu ficar do teu lado
Am7        G#4+(7M)   Am7         G#4+(7M)  E/G#
 Você me chora  dores  de outro amor          se abre e acaba comigo

Fm6         Bb7(9)             C7M            C9
 E nessa novela eu não quero    ser teu amigo
   Fm6                 Bb7(9)               C7M                    C9
É    que eu preciso dizer que eu te amo,      te ganhar ou perder sem engano
Fm6              Bb7(9)                 G#6    A#6
 É eu preciso dizer que eu te amo, tanto

C7M                F7M           C7M          Dm7  G7
 Eu já não sei se eu to misturando, ah, eu perco o sono
C7M                   F7M                 C7M  F7M
 Lembrando em cada riso teu qualquer bandeira
C7M                     F7M                C7M  F7M
 Fechando e abrindo a geladeira a noite inteira
Fm6                 Bb7(9)                      C7M              C9
 É que eu preciso dizer que eu te amo, te ganhar ou perder sem engano
Fm6              Bb7(9)                 G#6    A#6
 É eu preciso dizer que eu te amo, tanto

C7M                F7M           C7M          Dm7  G7
 Eu já não sei se eu to misturando, ah, eu perco o sono
C7M                   F7M                 C7M  F7M
 Lembrando em cada riso teu qualquer bandeira
C7M                     F7M                C7M  F7M
 Fechando e abrindo a geladeira a noite inteira
Fm6                 Bb7(9)                      C7M              C9
 É que eu preciso dizer que eu te amo, te ganhar ou perder sem engano
Fm6             Bb7(9)            C9  C
 É eu preciso dizer que eu te amo, tanto

Clipes