busca

Só Se For a Dois

Cazuza

Tom: D
Riff - 1 (introdução)
E|-------------------------------------
B|-------------------------------------
G|-------------------------------------
D|-------0----------0----------0-------
A|-----0----------0----------0---------
E|---2-----3---2------3---2------3-----

Riff - 2
E|--------------------
B|------2-----3-------
G|---0----0-----0---0-
D|----------0-----0---
A|--------------------
E|--------------------

Riff - 3
E|---------------------------------------------------
B|---------------------------------------------------
G|---------------------------------------------------
D|-----4-5---7-5-----4-5---7-5-----------------------
A|-----4-5---7-5-----4-5---7-5-----------------------
E|-----2-3---5-3-----2-3---5-3-----------------------

riff-1 
Aos gurus da Índia
Aos judeus da Palestina
Aos índios da América Latina
E aos brancos da África do Sul
O mundo é azul
Qual é a cor do amor ?
O meu sangue é negro, branco
Amarelo e vermelho

Riff - 3

Riff - 1
Aos pernambucanos
E aos cubanos de Miami
Aos americanos, russos
Armando seus planos

Riff - 3
Ao povo da China
E ao que a história ensina
Aos jogos, aos dados
Que inventaram a humanidade

Riff - 4
E|---------------------------------------------------
B|---------------------------------------------------
G|-----4-----4---------------------------------------
D|-----4-2---4-2-7-----------------------------------
A|-----2-2---2-2-7-----------------------------------
E|-------0-----0-5-----------------------------------

As possibilidades de felicidade
São egoístas, meu amor
Viver a liberdade,   
amar de verdade

só se for a dois

Solo (Riff - 2)  2x

Riff - 3 
Aos filhos de Ghandi
Morrendo de fome
Aos filhos de Cristo
Cada vez mais ricos

Riff - 4
O beijo do soldado em 
sua namorada
Seja para onde for
Depois a grande noite
Vai esconder a cor das flores

(Riff - 3)2x
E mostrar a dor, a dor

Riff - 3 
Eu digo, o mundo é azul
Qual é a cor do amor ?
O meu sangue é negro, branco
Amarelo e vermelho, 
Vermelho.

Finalização
Riff - 1
E|-------------
B|-------------
G|-------------
D|-------0-----
A|-----0-------
E|---2-----3---

o o o h

Clipes