A Grande Volta

Charlie Brown Jr.

A#
234
X13331
C#
234
X46664
D#m
1234
XX1342
F#
234
244322
G#m
34
466444
Tom: G
Intro: (D#m C# A#)


A introdução se vcs ouvirem junto 
com a musica fika mais facil de 
pegar.


(Introdução antes do solo)

e|------------------------------
B|------------------------------
G|----------------X--6/8--8-----
D|----------------X--6/8--8-----
A|----------------X--4/6--6-----
E|------------------------------

e|-----------------------------------| 
B|-----------------------------------| 
G|88---------------------------------| 
D|88---------------------------------| 
A|66---------------------------------| 
E|-----------------------------------| 



(Riff 1)

e|-------------------------------
B|-------------------------------
G|-------------------------------
D|-------------------------------
A|---999-888-666-------666-------
E|----------------9-6-------9-6--

e|----------------------------------| 
B|----------------------------------| 
G|----------------------------------| 
D|----------------------------------| 
A|888------6-5-4----------4---------| 
E|----9-6----------6-4-6-----6-4-6--| 


(Riff 1)
                D#m
Olha só quem voltou, movimento de 
valor
                     C#
que mostrou porque sabia
                     A#
se ligou que agora é dia
                    D#m
Que era sol, que alegria
vou juntar toda familia G#m Junta os manos, a gataria festa boa vai rolar D#m A grande volta que sempre um pra dar o gas agora sim C# A# Esquentou na veia e vira volta a coisa ssim D#m Noite conta que sempre um pra dar o gás agora sim C# A# esquentou na veia e vira volta a coisa assim -Refrão -> 2x: D#m F# O mel no labio que resseca a boca D#m F# O mel na boca que te deixa louca Repete-> Solinho Repete-> Inicio ao fim Repete 4x-> (D#m C# A#) Repete-> Refrão (repete abaixo 4x) D#m F# Que te deixa louca
Composição: Colaboração e revisão: