Am
123
X02210
E
123
022100
E5
12
022XXX
Em
12
022000
F
234
133211
F#5
134
244XXX
G5
134
355XXX
Tom: G
[Intro] F  Am  Em
        F  Am  Em
        F  Am  Em
        F  Am  Em

Riff 1


   F               
E|--------------------------------
B|--------------------------------
G|---------0-----0----------0-----
D|-----3-----3----------3-----3---
A|---3---3-----3------3---3-----3-
E|-1----------------1-------------

E|----------| 
B|----------| 
G|0---------| 
D|----------| 
A|----------| 
E|----------| 



   Am               Em
E|--------------------------------
B|--------------------------------
G|---------0-----0------------0---
D|-----7-----7-----------9------9-
A|---7---7-----7------10---10-----
E|-5----------------0-------------

E|----------| 
B|----------| 
G|----------| 
D|----------| 
A|--10------| 
E|0---------| 


[Primeira Parte]

Riff 2


   E5    F#5   G5 
E|--------------------------------
B|---0-----0------0-----0-----0---
G|-----0-----0------0-----0-----0-
D|--------------------9-----9-----
A|-7-----9-----10-----------------
E|-0-----0-----0------------------

E|----------| 
B|----------| 
G|----------| 
D|9---------| 
A|----------| 
E|----------| 


A vida é feita de atitudes nem 
sempre descentes

Não lhes julgam pela razão

Mas pelo seus antecedentes

[Refrão]

Riff 1


   F               
E|--------------------------------
B|--------------------------------
G|---------0-----0----------0-----
D|-----3-----3----------3-----3---
A|---3---3-----3------3---3-----3-
E|-1----------------1-------------

E|----------| 
B|----------| 
G|0---------| 
D|----------| 
A|----------| 
E|----------| 



   Am               Em
E|--------------------------------
B|--------------------------------
G|---------0-----0------------0---
D|-----7-----7-----------9------9-
A|---7---7-----7------10---10-----
E|-5----------------0-------------

E|----------| 
B|----------| 
G|----------| 
D|----------| 
A|--10------| 
E|0---------| 


F
  É quando eu volto a me lembrar
                           Am
Do que eu pensava nem ter feito
         Em
Vem me traz aquela paz
E
  Você procura a perfeição
                        Am
Eu tenho andado sobre efeito
Em Mas posso te dizer que já não aguento mais F Desencana não vou mudar Am Por sua causa não tem jeito Em Quem é que decide F O que é melhor pra minha vida Am Em agora? [Segunda Parte] E5 F#5 G5 Ouvi dizer que só era triste quem E5 F#5 G5 queria E5 F#5 G5 Ouvi dizer que só era triste quem E5 F#5 G5 queria E5 F#5 G5 Ouvi dizer que só era triste quem E5 F#5 G5 queria E5 F#5 G5 Ouvi dizer que só era triste quem E5 F#5 G5 queria [Refrão] F Lidei com coisa que jamais entenderei Am Em Ah, se eu pudesse estar em paz F Me livrar do pesadelo de vê-lo nesse estado Am Em E não poder ajudá-lo, não F Mas triste é poder mudar Am Em Porque estais tão revoltado irmão ( F Am Em ) [Segunda Parte] E5 F#5 G5 Ouvi dizer que só era triste quem E5 F#5 G5 queria E5 F#5 G5 Ouvi dizer que só era triste quem E5 F#5 G5 queria E5 F#5 G5 Ouvi dizer que só era triste quem E5 F#5 G5 queria E5 F#5 G5 Ouvi dizer que só era triste quem E5 F#5 G5 queria ( F Am Em ) ( F Am Em ) ( F Am Em ) ( F Am Em ) [Segunda Parte] E5 F#5 G5 Ouvi dizer que só era triste quem E5 F#5 G5 queria E5 F#5 G5 Ouvi dizer que só era triste quem E5 F#5 G5 queria E5 F#5 G5 Ouvi dizer que só era triste quem E5 F#5 G5 queria E5 F#5 G5 Ouvi dizer que só era triste quem E5 F#5 G5 queria [Primeira Parte] Riff 2 E5 F#5 G5 E|-------------------------------- B|---0-----0------0-----0-----0--- G|-----0-----0------0-----0-----0- D|--------------------9-----9----- A|-7-----9-----10----------------- E|-0-----0-----0------------------ E|----------| B|----------| G|----------| D|9---------| A|----------| E|----------| A vida é feita de atitudes nem sempre descentes Não lhes julgam pela razão Mas pelo seus antecedentes Cuidado com seus passos!
Composição: ChorãoColaboração e revisão: Thiago AlmeidaBreno adriano silvaThiago Pachecoe mais 1