Beco Sem Saída

Charlie Brown Jr.

A9
12
X02200
B4
234
X24452
C#m7
34
X46454
Db5(9)
134
X468XX
E7M
1234
XX2444
Tom: G
RIFF 1


Eb|-------------------------------
Bb|-------9-----------------9-----
Gb |----------9-----------------9-
Db|-------------7-----------------
Ab|----0-----------0-0-0-0--------
Eb|-------------------------------

E|---------------------------------
B|------------7----------------7---
G|----------------9----------------
D|7-----------------7--------------
A|---0-0-0-9-----------9-9-9-9-----
E|---------------------------------

E|------------------------------------------------------------|       
B|--------------9-----------------9-----------------7--- -----|       
G|9-----------------9-----------------9-----------------9------|      
D|--7-----------------9-----------------9-----------------9---|       
A|-----9-9----------------------------------------------------|       
E|----------0-9----------9-9-9-9-----------9-9-0-0------------|       



Eb|-------------------------------
Bb|-------------7-----------------
Gb|----------------9--------------
Db|-------------------9-----------
Ab|-------------------------------
Eb|----0-0-0-0--------------------


(Utilizando o RIFF 1)
As circunstâncias se tornaram um 
beco sem saída
Seu orgulho te traiu e te jogou no 
chão
E as cicatrizes dessa história mal 
escrita
Se converteram no aprendizado da 
reconstrução

           A9          B4
Mas todos vivemos dias incríveis
        C#m7
Que não passam de ilusão
A9 B4 Todos vivemos dias difíceis C#m7 Mas nada disso é em vão (riff 2) Eb|------------------------------- Bb|------------------------------- Gb|--------4--------------------4- Db|-----2-----2-----2--------4---- Ab|--0-----------0--------2------- Eb|------------------------------- E|---------------------------------- B|---------------------------------- G|-------------------4-------------- D|-4-----4--------2-----2-----2----- A|----2--------4-----------4-------- E|---------------------------------- E|-----------------------| B|-----------------------| G|--------4--------------| D|---2-------2-----------| A|4-----4-------4--2--0--| E|-----------------------| (UTILIZANDO RIFF 2) Todo bem que você faz pra quem te ama E quem te ama te faz Isso tudo é o que te faz levar a vida na paz Só Deus sabe quanto tempo Que o tempo deve levar ( E7M Db5(9) ) E7M Viver, viver e ser livre Db5(9) Saber dar valor para as coisas mais simples E7M Só o amor constrói pontes Db5(9) indestrutíveis E7M A arte maior é o jeito de cada um Db5(9) Vivo pra ser feliz não vivo pra ser comum ( E7M Db5(9) ) Eb|-------7-------------------7-- Bb|----------9------------------- Gb|-------------6---------------- Db|------------------------------ Ab|----0------------0-0-0-0------ Eb|------------------------------ E|-----------------11--| B|9--------------9-----| G|---6-----------------| D|-----------9---------| A|--------11-----------| E|---------------------|
Composição: ChorãoColaboração e revisão: Lucas Françadiney consoliMarcelo RaulinoClaudio Juniore mais 2