Bocas Ordinárias, Guerrilhas

Charlie Brown Jr.

Tom: G
(intro)


Eb|-----------------              
Bb|-----------------              
Gb|-----7--7--------(8x)          
Db|-7---7--7---7--7-              
Ab|-7---5--5---7--7-              
Eb|-5----------5--5-              

E|  eb|---5-- 
B|  bb|---7-- 
G|  gb|---7-- 
D|  db|---7-- 
A|  ab|---5-- 
E|  eb|------ 


(abafado)
(riff 1)

Eb|---5-----5---5------8-5-------
Bb|--5-----5---5----5--8-5-------
Gb|-2------------------------5---
Db|------5----4---4--------3---3-
Ab|------------------------------
Eb|------------------------------

E|---------------------------- 
B|6--------------------------- 
G|--5----------7-------------- 
D|----3----7-----7------------ 
A|-------5---5-----5---------- 
E|---------------------------- 



(riff 2)

Eb|---5-----5----5----5---4------
Bb|------------------------------
Gb|-2----------------------------
Db|------5-----4----5---2---4--2-
Ab|------------------------------
Eb|------------------------------

E|---------------------------------------------------- 
B|-4--------------4h7p4------------------------------- 
G|4--4------------------6-4-----------------6-8/9/11-- 
D|-----2----2-2---------------------------2-6-x-x-x-x- 
A|-------2/4----4----------------2-4-2----2-4-6/7/9--- 
E|--------------------------4-2-4-----4-2-0----------- 


(riff 1)

(riff 3)
       (p. m.)               (p. m.)

Eb|------------------------------
Bb|--------------8---------------
Gb|-----5-7---7/9-9--7p5----5-5--
Db|---7-5-7-7-----------7-5-5-5--
Ab|---7-3-5-7---------------3-3--
Eb|---5-----5--------------------

E|---------- 
B|---------- 
G|7-7------- 
D|7-7------- 
A|5-5------- 
E|---------- 


(riff 2) (p. m.) Eb|--------------------------- Bb|--------------------------- Gb|-----------5---5---5---7--- Db|---7---7---5---5---5---7(7 Ab|---7---7---3---3---3---5--- Eb|---5---5------------------- E|----------- B|----------- G|-------5--- D|vezes)-5---(2 vezes) A|-------3--- E|----------- (riff 3) Eb|------------------------------- Bb|------------------------------- Gb|-----------5------------------- Db|---7---7---5---7---7---5---5--- Ab|---7---7---3---7---7---5---5--- Eb|---5---5-------5---5---3---3--- E|--------------------------------- B|--------------------------------- G|----7---7---7---5---------------- D|5---7---7---7---5(5 vezes)---5--- A|5---5---5---5---3------------5--- E|3----------------------------3--- E|---- B|---- G|---- D|7--- A|7--- E|5--- (riff 4) Eb|------------------------------- Bb|------------------------------- Gb|------------------------5---7-- Db|---7------------7---7---5---7-- Ab|---7(2 vezes)---7---7---3---5-- Eb|---5------------5---5---------- (p. m.) (p. m.) E|------------------------- B|------------------------- G|-7----------5------------ D|-7(8 vezes)-5(8 vezes)--- A|-5----------3------------ E|------------------------- (riff 5) Eb|------------------------------- Bb|--------------------9h10---6h7- Gb|--------------7~5-------------- Db|---7--------------------------- Ab|---7(6 vezes)------------------ Eb|---5--------------------------- E|------------------- B|------------------- G|--9h10---6h7-------(4 vezes) D|---------------7--- A|------------------- E|------------------- (solo) Eb|---15h17---15---17---20--- Bb|-------------------------- Gb|-------------------------- Db|-------------------------- Ab|-------------------------- Eb|-------------------------- E|17h15---12---15---12---15---12---12--- B|-------------------------------------- G|-------------------------------------- D|-------------------------------------- A|-------------------------------------- E|-------------------------------------- 15---12--- ---------- ---------- ---------- ---------- ---------- Eb|----------------------------- Bb|---9----------7-------------- Gb|---9(3 vezes)-7(3 vezes)-9--- Db|---7----------5----------9(3 Ab|-------------------------7--- Eb|----------------------------- E|--------------------------------- B|-----------------------------7--- G|-------7----------9----------7--- D|vezes)-7(3 vezes)-9(2 vezes)-5--- A|-------5----------7-------------- E|--------------------------------- -----------------------12----- -------------14--------------- 13h15---15--------15---------- ------------------------------ ------------------------------ ------------------------------ Eb|------------------------------- Bb|------------------------------- Gb|---7h9---9----9h7------------9- Db|--(4 vezes)---------10---7----- Ab|------------------------------- Eb|------------------------------- E|------------------------------ B|------------------------------ G|--7------------7---7h9---9---- D|------10---7------(4 vezes)--- A|------------------------------ E|------------------------------ E|-----------------------12~~~--- B|-------------14---------------- G|13h15---15--------15----------- D|------------------------------- A|------------------------------- E|------------------------------- (riff 6) Eb|------------------------------ Bb|------------------------------ Gb|------------------------------ Db|---9h10---7------------------- Ab|--------------9---7---5------- Eb|--------------------------8--- E|---- B|---- G|---- D|7--- A|7--- E|5--- (intro) (riff 1) (riff 2) (riff 3) (riff 4) (riff 5) (intro 4x) (riff 1 - 2x) (riff 2) (riff 3) (riff 4) (riff 5 - 4x) (intro - 3x) (solo) (intro 3x) (riff 6)
Composição: ChampignonsColaboração e revisão: Vitor BotarelliCarlos NetoGabriel Fonseca