Champanhe e Água Benta

Charlie Brown Jr.

A
3
X0P2225
A/G
34
3XP2225
E
234
X76454
F#5
134
244XXX
F#m
34
244222
G
123
3X0033
Tom: G

Introdução: Riff Principal

E|-------------------------------
B|-------------------------------
G|-------------------------------
D|-----------------------------2-
A|-------------2-2-2-3-3-3-4-4---
E|-2-2-2-5-5-5-------------------

E|----------------------| 
B|----------------------| 
G|----------------------| 
D|3-4-4-4-2-2-2---------| 
A|--------------4-4-4---| 
E|----------------------| 



E|--------------------------------
B|--------------------------------
G|--------------------------------
D|--------------------------------
A|-3-3-3-2-2---2------------------
E|-----------5--------------------




Primeira Parte: Riff Estrofes

E|--------------------------------
B|--------------------------------
G|--------------------------------
D|------4----------------7-7------
A|--------------------------------
E|-2--x---x-x-5--x-x-5-5-----5----


Atitude a gente tem
Sorte a gente tem também
De um jeito ou de outro
Pode crer que elas vem
Mas não só pra um rolé
Pra muito mais que isso
O que elas querem é aquilo
E você tá ligado disso

Vem, vem com tudo
Me leva pro seu mundo
Toda patricinha adora um vagabundo
Se fui pobre não me lembro
Se fui rico me roubaram
Meu esporte predileto é o mesmo do 
Romário


Passagem:

E|-------------------------------
B|-------------------------------
G|-------------------------------
D|-----------------------------2-
A|-------------2-2-2-3-3-3-4-4---
E|-2-2-2-5-5-5-------------------

E|----------------------| 
B|----------------------| 
G|----------------------| 
D|3-4-4-4-2-2-2---------| 
A|--------------4-4-4---| 
E|----------------------| 



E|--------------------------------
B|--------------------------------
G|--------------------------------
D|--------------------------------
A|-3-3-3-2-2---2------------------
E|-----------5--------------------



E|-------------------------------
B|-------------------------------
G|-------------------------------
D|-----------------------------2-
A|-------------------2-2-2-3-3---
E|-2-2-2-4-4-4-5-5-5-------------

E|--------------0-------| 
B|--------------5-------| 
G|--------------4-------| 
D|3-4-4-4-2-2-2-2-------| 
A|--------------2-------| 
E|----------------------| 


Primeiro Refrão:

 A                    A/G
Não tão complicado demais
                       F#m  G
Mas nem tão simples assim
 A                    E
Não tão complicado demais
                       G
Mas nem tão simples assim

Segunda Parte: E|-------------------------------- B|-------------------------------- G|-------------------------------- D|------4----------------7-7------ A|-------------------------------- E|-2--x---x-x-5--x-x-5-5-----5---- Minha vida é tipo um filme de Spike Lee Verdadeiro, complicado, Mal humorado e violento Você é bonito, e eu sou feio Sua mãe te ama, mas eu te odeio Quem tem boca fala o que quer Só não pode ser mané Coração de vagabundo bate na sola do pé Zica tem monte Zoião dá até em penca Eu tomo banho de banheira Com champanhe e água benta (Repete Passagem) Segundo Refrão: A A/G Não tão complicado demais F#m G Mas nem tão simples assim A E Não tão complicado demais G Mas nem tão simples assim Terceira Parte: F#5 Você é bonito F#5 E eu sou feio F#5 Sua mãe te ama F#5 Mas eu te odeio F#5 Eu vim de skate Sou guerreiro do asfalto F#5 Quem fecha comigo Joga a mão pro alto F#5 Eu vim de skate Sou guerreiro do asfalto F#5 Quem fecha comigo Joga a mão pro alto, bem alto Terceiro Refrão: A A/G Não tão complicado demais F#m G Mas nem tão simples assim A E Não tão complicado demais G Mas nem tão simples assim Riff Final: Parte 1 - 2x E|------------------------------- B|------------------------------- G|------------------------------- D|-4-4-4-2-2-2------------------- A|-------------4-4-4-2-2-2-----2- E|-------------------------5-5--- E|----------------------| B|----------------------| G|----------------------| D|----------------------| A|4-5-5-5-4-4-4-2-2-2---| E|----------------------| E|-------------------------------- B|-------------------------------- G|-------------------------------- D|-------------------------------- A|-------2---2-4------------------ E|-5-5-5---5---------------------- E|------------------------------- B|------------------------------- G|------------------------------- D|-----------------------------2- A|-------------2-2-2-3-3-3-4-4--- E|-2-2-2-5-5-5------------------- E|----------------------| B|----------------------| G|----------------------| D|4---------------------| A|--5-5-5-4-4-4-2-2-2---| E|----------------------| E|-------------------------------- B|-------------------------------- G|-------------------------------- D|-------------------------------- A|-------2---2-4------------------ E|-5-5-5---5---------------------- Parte 2 de 2 E|-5-x-x-7-x-x-5-x-x-7-x-x-17-17- B|-5-x-x-7-x-x-5-x-x-7-x-x-17-17- G|------------------------------- D|------------------------------- A|------------------------------- E|------------------------------- E|17\-------------------| B|17\-------------------| G|----------------------| D|------4---------------| A|------4---------------| E|------2---------------|
Composição: Chorão / Luiz Carlos Jr. Leao Duarte / Marcão / PeladoColaboração e revisão: Vinícius DiasAndré ChagasPedro Augusto
Videoaula Champanhe e Água Benta (guitarra)