Cheia de Vida

Charlie Brown Jr.

A#5
134
X133XX
B5
134
X244XX
C#5
134
X466XX
C5
134
X355XX
D#5
134
X688XX
D5
134
X577XX
F#5
134
244XXX
F5
134
133XXX
Tom: G

Riff 1:2x

E|-------------------------------
B|-------------14-14-14----------
G|-------11-11----------13-13-13-
D|-13-13-------------------------
A|-------------------------------
E|-------------------------------

E|-------13b14----| 
B|11-11-----------| 
G|----------------| 
D|----------------| 
A|----------------| 
E|----------------| 



Riff 2:                                                                          2x

E|--13-13-11-11-9-9-------11-11-9-
B|------------------11-11---------
G|--------------------------------
D|--------------------------------
A|--------------------------------
E|--------------------------------

E|9-------------------------------
B|--11-11-9-9-11-11-9-9-----------
G|----------------------11-11-8-8-
D|--------------------------------
A|--------------------------------
E|--------------------------------

E|---------------|------------------
B|9h11-9---------|------------------
G|9----9--10h11-8|---15-13h15p13-11-
D|---------------|13----------------
A|---------------|------------------
E|---------------|------------------

----------| 
----------| 
------11--| 
13-15---13| 
----------| 
----------| 



Riff principal 1:
      D#5             F#5           
E|-------------------------------
B|-------------------------------
G|-8-----8-----8---11----11----11
D|-8-----8-----8---11----11----11
A|-6-6-6-6-6-6-6-6-9-9-9-9-9-9-9-
E|-------------------------------
PM    . .   . .   .   . .   . .  
    C#5             B5
E|-----------------------------------| 
B|-----------------------------------| 
G|-----------------------------------| 
D|--11----11----11--9-----9-----9----| 
A|9-11----11----11--9-----9-----9----| 
E|--9-9-9-9-9-9-9-9-7-7-7-7-7-7-7-7--| 
 .   . .   . .   .   . .   . .   .   



Variação 1 do Riff principal 1:
      D#5             F#5           
E|-----------------
B|-----------------
G|-8-8-8-8-8-8-8-8-
D|-8-8-8-8-8-8-8-8-
A|-6-6-6-6-6-6-6-6-
E|-----------------
PM    . . . . . . .
    C#5             B5
E|--------------
B|--------------
G|11111111111111
D|11111111111111
A|9-9-9-9-9-9-9-
E|--------------
   . . . . . .

E|-----------------------------------| 
B|-----------------------------------| 
G|11---------------------------------| 
D|1111111111111111119-9-9-9-9-9-9-9--| 
A|9-11111111111111119-9-9-9-9-9-9-9--| 
E|--9-9-9-9-9-9-9-9-7-7-7-7-7-7-7-7--| 
 .   . . . . . . .   . . . . . . .   



Riff 3:
      D#5             F#5           
E|-----------------
B|-----------------
G|-8-8-8-8-8-8-8-8-
D|-8-8-8-8-8-8-8-8-
A|-6-6-6-6-6-6-6-6-
E|-----------------
     ( C#5 D#5 B5 )
E|--------------
B|--------------
G|11111111111111
D|11111111111111
A|9-9-9-9-9-9-9-
E|--------------

E|---|----------| 
B|---|----------| 
G|11-|----------| 
D|11-|-11-13-9--| 
A|9--|-11-13-9--| 
E|---|-9--11-7--| 



Refrão:
      D#5   C#5   B5   ( B5 )
E|--------------------------| 
B|--------------------------| 
G|-888888666666444444444444-| 
D|-888888666666444444444444-| 
A|-666666444444222222222222-| 
E|--------------------------| 


D5             F5 C5            
Atenção rapaziada a dona do 
        A#5
sorriso mais lindo vai passar
D5                  F5           
E quando ela passar eu não quero 
            C5             A#5
ver ninguém perdendo a linha
D5                 F5  
Ela vem com o seu sorriso 
             C5 A#5
estonteante.
D5                     F5
Dona de um andar que é só dela
C5                      A#5
E com uma personalidade única

{Refrão} D5 C5 A#5 Você é tão cheia de vida D5 C5 A#5 Que ninguém resiste a você D5 C5 A#5 Você é tão cheia de vida D5 C5 A#5 Que ninguém resiste a você D5 F5 Quando você encontra uma pessoa, C5 que te faz esquecer tudo, que te A#5 faz tão bem D5 F5 C5 Seja qualquer problema e você nem D5 A#5 lembra D5 F5 Quando você encontra uma pessoa, C5 que te faz esquece tudo, que te faz A#5 tão bem D5 F5 C5 Seja qualquer problema e você nem D5 A#5 C5 D5 A#5 lembra.. nem lembra. D5 F5 Eu quero que você fique segura C5 Fazer amor contigo na minha cama ou A#5 na sua D5 E uma dose muito forte não vai ser F5 suficiente C5 Me sinto mais em casa quando você A#5 está presente Então, D5 F5 Fica mais, fica mais um pouco, C5 porque muito de você pra mim ainda A#5 é pouco D5 F5 C5 D5 Bb5 (deixa soar) Então fica mais fica mais um pouco, você me deixa muito louco {Refrão} D5 C5 A#5 Você é tão cheia de vida D5 C5 A#5 Que ninguém resiste a você D5 C5 A#5 Você é tão cheia de vida D5 C5 A#5 Que ninguém resiste a você
Composição: Colaboração e revisão: kaleo oiticicaAlexandre Ferreiraedjan