Com Minha Loucura Faço Meu Dinheiro, Com Meu Dinheiro Faço Minhas Loucuras

Charlie Brown Jr.

Tom: G
(tablatura p/ canhoto)

Intro:


E|-------------------------------
A|-6-8--3-3---3--------6-8--3--3-
D|-8-10-5---1----------8-10-5----
G|-------------------------------
B|-----------------8-6-----------
E|---------------6---------------

E|---------|    
A|---------|    
D|3/5-3-1--|2x  
G|---------|    
B|---------|    
E|---------|    



E|-------------------------------
A|-------------------------------
D|--------------------------10---
G|---------------------10-7----7-
B|----11-10-8-10-11-88-----------
E|-88----------------------------

E|---------------------------|    
A|---------------------------|    
D|---------------------------|4x  
G|10----1010-77-1010----10-7-|    
B|---99--------------99------|    
E|---------------------------|    




E|-------------------------------
A|-------------------------------
D|---------------------------5-5-
G|--------------1010----10-7-7-7-
B|----1111-1010------88----------
E|-88----------------------------

E|---------------------------|    
A|---------------------------|    
D|8--10-5---5----------------|4x  
G|10-12-7---7----------------|    
B|--------------8-6----------|    
E|------------6--------------|    



E|--------------------------------
A|--------------------------------
D|-55-XXXXXXX----XXXXXXX----------
G|-77-XXXXXXX----XXXXXXX-------10-
B|------------88----------10-8----
E|--------------------------------

E|-------|    
A|-------|    
D|-------|3x  
G|-------|    
B|8------|    
E|-------|    



E|--------------------------------
A|--------------------------------
D|--------------------------------
G|-12-11--------------------------
B|-------10-8-12-8--13-12---------
E|--------------------------------

E|-------|        
A|-------|        
D|-------|3x P.M  
G|-------|        
B|-------|        
E|-------|        


E|------------------------------- A|-6-8--3-3---3--------6-8--3--3- D|-8-10-5---1----------8-10-5---- G|------------------------------- B|-----------------8-6----------- E|---------------6--------------- E|---------| A|---------| D|3/5-3-1--|2x G|---------| B|---------| E|---------| E|------------------------------- A|------------------------------- D|--------------------------10--- G|---------------------10-7----7- B|----11-10-8-10-11-88----------- E|-88---------------------------- E|---------------------------| A|---------------------------| D|---------------------------|4x G|10----1010-77-1010----10-7-| B|---99--------------99------| E|---------------------------| E|------------------------------- A|------------------------------- D|---------------------------5-5- G|--------------1010----10-7-7-7- B|----1111-1010------88---------- E|-88---------------------------- E|---------------------------| A|---------------------------| D|8--10-5---5----------------|4x G|10-12-7---7----------------| B|--------------8-6----------| E|------------6--------------| E|-------------------------------- A|-------------------------------- D|-55-XXXXXXX----XXXXXXX---------- G|-77-XXXXXXX----XXXXXXX-------10- B|------------88----------10-8---- E|-------------------------------- E|-------| A|-------| D|-------|3x G|-------| B|8------| E|-------| Baixo: E|-------------------------------- A|--1010--33--55------------------ D|-----------------88------------- G|-------------------------------- B|-------------------------------- E|-------------------------------- E|------------------------------- A|-6-8--3-3---3--------6-8--3--3- D|-8-10-5---1----------8-10-5---- G|------------------------------- B|-----------------8-6----------- E|---------------6--------------- E|---------| A|---------| D|3/5-3-1--|2x G|---------| B|---------| E|---------| E|------------------------------- A|------------------------------- D|--------------------------10--- G|---------------------10-7----7- B|----11-10-8-10-11-88----------- E|-88---------------------------- E|---------------------------| A|---------------------------| D|---------------------------|4x G|10----1010-77-1010----10-7-| B|---99--------------99------| E|---------------------------| E|------------------------------- A|------------------------------- D|---------------------------5-5- G|--------------1010----10-7-7-7- B|----1111-1010------88---------- E|-88---------------------------- E|---------------------------| A|---------------------------| D|8--10-5---5----------------|4x G|10-12-7---7----------------| B|--------------8-6----------| E|------------6--------------| E|-------------------------------- A|-------------------------------- D|-55-XXXXXXX----XXXXXXX---------- G|-77-XXXXXXX----XXXXXXX-------10- B|------------88----------10-8---- E|-------------------------------- E|-------| A|-------| D|-------|3x G|-------| B|8------| E|-------| E|-------------------------------- A|-------------------------------- D|-5-X-3-5-8--5-5-5-5-5----------- G|-7-X-5-7-10-7-7-7-7-7----------- B|-------------------------------- E|-------------------------------- E|-------| A|-------| D|-------|2x G|-------| B|-------| E|-------| E|------------------------------- A|------------10-8--10-10-10-8--- D|-5-X-3-5-8--12-10-12-12-12-10-- G|-7-X-5-7-10-------------------- B|------------------------------- E|------------------------------- E|--------| A|--------| D|5~------| G|7~------| B|--------| E|--------| (lembrando q a afinação é em Bemol)
Composição: ChampignonsColaboração e revisão: heldinho