Como Tudo Deve Ser

Charlie Brown Jr.

F#m7(11)
123
2X220X
Tom: G
[Intro]

[Riff] 

Parte 1 de 2

#1t1##1t2#E|---------------------------------------------------------|
B|----------------2----------------------------------------|
G|----------------------4----------------------------------|
D|-------6---4h6--------------6-4-2-----4---2h4------------|
A|----4------------------------------4---4----------------|
E|-5------5-------2--2-----2-------------------------------|#/1t2##/1t1#

Parte 2 de 2

#2t1##2t2#E|---------------------------------------------------------|
B|---------------------------------------------------------|
G|-4---2-----1-2-1-----------------------------------------|
D|---------------------------------------------------------|
A|---------------------------------------------------------|
E|-0-0---0--------------4/5--------------------------------|#/2t2##/2t1#

[Solo]

Parte 1 de 3

#3t1##3t2#E|---------------------------------------------------------|
B|-----5-4-------------------2---------------2-------------|
G|---4------6-4--------1h4-----4p1------4------------------|
D|--------------6---6---------------4/6---2----2/4----6----|
A|-4--------------4---------------------------------4---4--|
E|------------------------------0--------------------------|#/3t2##/3t1#

Parte 2 de 3

#4t1##4t2#E|---------------------------------------------------------|
B|---------5p4---------------------------------------------|
G|-----4-6-----4---4---------------------------------------|
D|-6-6-----------6-----------------------------------------|
A|---------------------------------------------------------|
E|---------------------------------------------------------|#/4t2##/4t1#

Parte 3 de 3

#5t1##5t2#E|---------------------------------------------------------|
B|---------5p4---------------------------------------------|
G|-----4-6-----4---4----4/6--------------------------------|
D|-6-6-----------6-----------------------------------------|
A|---------------------------------------------------------|
E|---------------------------------------------------------|#/5t2##/5t1#

[Primeira Parte]

[Riff -Intro]

Um belo sonho veio então despertar minha vontade
Tudo vale a pena para te reencontrar
Me livrei de tudo aquilo e consegui mudar
Tudo que foi feito em troca de uma amizade mas 
Felicidade é poder estar 
Com quem você gosta em algum lugar 
É foda ser louco, advogado do mundo mas 
Como tudo deve ser?
É foda ser taxado de doido, vagabundo mas 
Como tudo deve ser?

[Refrão]

#6t1##6t2#E|-7---7---7-----------------------------------------------|
B|-9---9---9---x--9--x--10---------------------------------|
G|-9---9---9---x--9--x---9---------------------------------|
D|-------------x--9--x---9---------------------------------|
A|-9---9---9---x--0--x---0---------------------------------|
E|---------------------------------------------------------|#/6t2##/6t1#

Foi quando te encontrei
Ouvindo um som e olhando o mar
Foi quando te encontrei
Ouvindo o som do mar rolar

[Segunda Parte]

[Riff -Intro]

Eu não nasci ontem, nem quando, como por onde mas 
Como tudo deve ser, com as balizas do nosso sistema
Sigo imprimindo meu sonho na história 
Como tudo deve ser
Um belo sonho veio então despertar minha vontade
Tudo vale a pena para te reencontrar
Me livrei de tudo aquilo e consegui mudar
Tudo que foi feito em troca de uma amizade mais

[Refrão]

#7t1##7t2#E|-7---7---7-----------------------------------------------|
B|-9---9---9---x--9--x--10---------------------------------|
G|-9---9---9---x--9--x---9---------------------------------|
D|-------------x--9--x---9---------------------------------|
A|-9---9---9---x--0--x---0---------------------------------|
E|---------------------------------------------------------|#/7t2##/7t1#

Foi quando te encontrei
Ouvindo um som e olhando o mar
Foi quando te encontrei
Ouvindo o som do mar rolar


[Solo]

Parte 1 de 8
 
#8t1##8t2#E|---------------------------------------------------------|
B|-10/12-x-10p9-----10h12--10--9------10h12--10-9----------|
G|-9-/11-x-9----9----------------9----------------9--------|
D|-------x--------9----------------9----------------11-----|
A|-0-----x-9-----------------------------------------------|
E|-------------------------------9----------------0--------|#/8t2##/8t1#

Parte 2 de 8

#9t1##9t2#E|---------------------------------------------------------|
B|-------------------x--------------------------------x----|
G|------9-------9h11-x--11b-11p9-----------9-----9h11-x-11b|
D|-9h11---11---------x------------11--9h11---11-------x----|
A|------------0------x------9-------------------------x----|
E|-----------------------------------------------9---------|#/9t2##/9t1#

Parte 3 de 8

#10t1##10t2#E|---------------------------------------------------------|
B|---------------------0h2---------0h2------------0h2------|
G|-11p9-----------9----------------------------------------|
D|------11--9h11----11------4-2-4-2-------4-2-4--------4-2-|
A|---------------------0------------------------4----------|
E|-0--------------------------------2----------------------|#/10t2##/10t1#

Parte 4 de 8

#11t1##11t2#E|---------------------------------------------------------|
B|---------------------------------------------------------|
G|-4-2-4/6/8/9/11------------------------------------------|
D|---------------------------------------------------------|
A|---------------------------------------------------------|
E|-----0---------------------------------------------------|#/11t2##/11t1#

Parte 5 de 8

#12t1##12t2#E|---------------------------------------------------------|
B|-12----x--10p9------10h12--10-9-------10h12-10-9---------|
G|-------x--9----9----------------9----------------9-------|
D|-------x---------9-----------------9---------------11----|
A|-0-----x--9----------------------------------------------|
E|--------------------------------9-------------------0----|#/12t2##/12t1#

Parte 6 de 8

#13t1##13t2#E|---------------------------------------------------------|
B|-------------------x--------------------------------x----|
G|------9-------9h11-x--11b-11p9-----------9-----9h11-x----|
D|-9h11---11---------x------------11--9h11---11-------x----|
A|------------0------x--0---9-------------------------x----|
E|-----------------------------------------------9---------|#/13t2##/13t1#

Parte 7 de 8

#14t1##14t2#E|-------12~-------------0-------0---------2------------|
B|---------------12--------4-------4-------5-5----------|
G|-11/13------13-------------1-------1---1------4-------|
D|------------------------------------------------------|
A|-----------------------0------------------4-----------|
E|-------0----------------------2-----------------------|#/14t2##/14t1#

Parte 8 de 8

#15t1##15t2#E|--2-----------12--------------------------------------|
B|---5-----7----12--------------------------------------|
G|-----4/6---6------------------------------------------|
D|------------------------------------------------------|
A|--------------0---------------------------------------|
E|-0----------------------------------------------------|#/15t2##/15t1#

[Refrão]

#16t1##16t2#E|-7---7---7-----------------------------------------------|
B|-9---9---9---x--9--x--10---------------------------------|
G|-9---9---9---x--9--x---9---------------------------------|
D|-------------x--9--x---9---------------------------------|
A|-9---9---9---x--0--x---0---------------------------------|
E|---------------------------------------------------------|#/16t2##/16t1#

Foi quando te encontrei
Ouvindo um som e olhando o mar
Foi quando te encontrei
Ouvindo o som do mar rolar

Foi quando te encontrei
Ouvindo um som e olhando o mar
Foi quando te encontrei
Ouvindo o som do mar rolar
      F#m7(11)
O mar
Composição: ChorãoColaboração e revisão: Thiago AlmeidaYanno MoçambitePedro RedóPablo Hernestoe mais 4
Videoaula Como Tudo Deve Ser (aula de violão completa)