A
123
X02220
B
234
X24442
D#
234
X65343
F#
234
244322
G#
234
431114
Tom: G
 Riff 1


e|-------------------------------|
B|-------------------------------|
G|-------------------------------|
D|---7--4-4--4-7--4-4--4-7-------|
A|---7--4-4--4-7--4-4--4-7-------|
E|---5--2-2--2-5--2-2--2-5-------|



Pré Chorus ( guitarra 1 )


e|--------------------------------
B|--------------------------------
G|--4-4-4-4-4---7-7-7-7-7---------
D|--4-4-4-4-4---7-7-7-7-7---7-7-7-
A|--2-2-2-2-2---5-5-5-5-5---7-7-7-
E|--------------------------5-5-5-

e|------------------| 
B|------------------| 
G|------9-9-9-9-9---| 
D|7-7---9-9-9-9-9---| 
A|7-7---7-7-7-7-7---| 
E|5-5---------------| 


Pré Chorus ( guitarra 2 )


e|----------------------------
B|----------------------------
G|-----9/11-9-7-9-11-9-7------
D|--9----------------------7--
A|----------------------------
E|----------------------------

e|------------------| 
B|------------------| 
G|9/11-9-7-9-11-9---| 
D|------------------| 
A|------------------| 
E|------------------| 



Riff 1

Chorus:


e|--------------------------------
B|--------------------------------
G|-------8-8-8-8-8--------4-4-4-4-
D|--6-6--8-8-8-8-8---4-4--4-4-4-4-
A|--6-6--6-6-6-6-6---4-4--2-2-2-2-
E|--4-4--------------2-2----------

e|------| 
B|------| 
G|4-----| 
D|4-----| 
A|2-----| 
E|------| 


Riff 1

Pré Chorus

Riif 1

Chorus

Riff 1

últimos 2 acordes: A  F#






Introdução: A F# A F# Dez horas da manhã a campainha tocou A F# oficial de justiça logo ele avistou A eu tenho aqui uma intimação o F# senhor saia daqui A e deixa que eu vou confiscar o F# que tiver aqui A F# Eu quero essa TV eu quero o som e isso aqui A F# o que mais voce tiver, hoje vô até dormi aqui A tu não me enrola não, tu faz orgia F# aqui A tenho até pena de você tu tem três F# horas pra sair (enquanto uma guitarra faz esse riff uma outra faz as notas B D A E ) e|-------------------------------- B|--9-7-9/11-9-7---9-7-9/11-7----- G|-------------------------------- D|-------------------------------- A|-------------------------------- E|-------------------------------- A Eu tô aqui pra te mostrar o dia D F# A F# O dia D A F# O dia D A F# O dia D A F# Eu confisco, eu confisco esse é o A F# meu trabalho eu confisco A F# Eu confisco, eu confisco eu sou A F# da lei seu troxa eu confisco G# D# EU VOU PRA ONDE PRA ONDE EU DE VO IR F# B MONUMENTOS TEM UM CHEIRO QUE NINGUÉM AGUENTA G# D# MULTIDÃO DE SOLITÁRIOS QUE A F# B CIDADE ALIMENTA OBS: a partir daqui você toca a introdução e repete novamente a música toda. (A F#) A F# Eu confisco,eu confisco, eu A F# confisco, eu confisco A F# Eu confisco, eu confisco, eu A F# confisco, eu confisco A F# Eu confisco, eu confisco, eu A F# confisco, eu confisco A F# Eu confisco, eu confisco, eu A F# confisco, eu confisco.... Já F# era!!
Composição: ChorãoColaboração e revisão: Robson Pereira