Dona do Meu Pensamento

Charlie Brown Jr.

B5
134
X244XX
C#5
134
X466XX
E5
12
022XXX
G#
234
431114
G#5
134
466XXX
Tom: G
[Intro] G#5  B5  C#5  B5  C#5  

E5  B5  C#5  B5  C#5

(Riff 1)


E|--------------------------------
B|--------------------------------
G|---444--------------------------
D|---444-6-------1h2h4--2-1-1-----
A|---222-6-----------------4-4----
E|-------4--4-6-------------------



E|--------------------------------
B|--------------------------------
G|--------------------------------
D|--------------------------------
A|------1-2-1----------1-2-4-2----
E|-4--4-------4-2-4--4--------2-4-



E|--------------------------------
B|--------------------------------
G|--------------------------------
D|----------1h2h4--2-1---1--------
A|------4-6------------4---4------
E|----4----------------------4-4--



E|--------------------------------
B|--------------------------------
G|--------------------------------
D|--------------------------------
A|-1-2-1---------1-2-4-2-1--------
E|-------4-2-4-4-----------2------


(Riff 2)


E|--------------------------------
B|--------------------------------
G|---444------------466464--444---
D|---444--6xx6x6x6--466464--444---
A|---222--6xx6x6x6--244242--222---
E|--------4xx4x4x4----------------



E|--------------------------------
B|--------------------------------
G|-----------46646----------------
D|-2xx2x2x2--46646----------------
A|-2xx2x2x2--24424----------------
E|-0xx0x0x0-----------------------



E|--------------------------------
B|--------------------------------
G|---444------------46646--444----
D|---444-6xxx6x6x6--46646--444----
A|---222-6xxx6x6x6--24424--222----
E|-------4xxx4x4x4----------------



E|--------------------------------
B|--------------------------------
G|-----------46646--444-----------
D|-22222222--46646--444--6--------
A|-22222222--24424--222--4--------
E|-xxxxxxxx-----------------------


(Riff 3)


E|--------------------------------
B|--------------------------------
G|------------66x66x66------------
D|---66x66x66-66x66x66-22x22x22---
A|---66x66x66-44x44x44-22x22x22---
E|---44x44x44----------00x00x00---




E|--------------------------------
B|--------------------------------
G|-44x44x44-----------------------
D|-44x44x44-----------------------
A|-22x22x22-----------------------
E|--------------------------------



E|--------------------------------
B|--------------------------------
G|------------66x66x66------------
D|---66x66x66-66x66x66-22x22x22---
A|---66x66x66-44x44x44-22x22x22---
E|---44x44x44----------00x00x00---



E|--------------------------------
B|--------------------------------
G|-44x44x44-----------------------
D|-44x44x44-----------------------
A|-22x22x22-----------------------
E|--------------------------------


[Solo]


E|--------------------------------
B|-------4/6-4--------------------
G|-------------6--8----4--4/6-8---
D|---6----------------6-----------
A|--------------------------------
E|--------------------------------


E|-------------------------------- B|---------------------7/9-7------ G|--4/6-8------------(6)-----8--6- D|-6------6~~~~\p0--(6)----------- A|-------------------------------- E|-------------------------------- E|-------------------------------- B|------------------7------------- G|-4/6-8--6---4-6-8---4^~~~~-\p0-- D|-------------------------------- A|-------------------------------- E|-------------------------------- [Solo 2] E|-------------------------------- B|--------------------------7-7/9- G|-------6-8-----8-6------8------- D|---6h9-----6h9-----9--6--------- A|-------------------------------- E|-------------------------------- E|-------------------------------- B|-9/12-11^-7-7/9----------------- G|-------------------------------- D|-------------------------------- A|-------------------------------- E|-------------------------------- (Riff 1) (Riff 2) Seremos donos do nosso amanhã Se estivermos unidos Em sintonia com os nossos sonhos Mesmo se não formos iguais, pois não somos iguais, eu (Riff 1) Caminho no meio da multidão Eu me sinto a vontade Pois partilhamos noites, ruas e sonhos Como se fossemos iguais (Riff 3) Pois Me faz tocar o céu ver você sorrir Vem lua vem, vem dançar pra mim Ninguém em seu lugar então deixa a noite seguir Bom poder Brindar que você está aqui (Riff 2) Dona do meu pensamento, você nossa história (Riff 2) Dona do meu pensamento, você nossa história Observados por dragões ferozes Lutamos pra sobreviver Pois precisamos realmente saber O real valor que a vida tem, eu (Riff 1) Caminho no meio da multidão Eu me sinto a vontade Pois partilhamos noites, ruas e sonhos Como se fossemos iguais (Riff 3) Pois Me faz tocar o céu ver você sorrir Vem lua vem, vem dançar pra mim Ninguém em seu lugar então deixa a noite seguir Bom poder Brindar que você está aqui [Solo 1] Dona do meu pensamento, você nossa história [Solo 1] Dona do meu pensamento, você nossa história [Solo 2] [Riff 3] Eu sempre vou te amar Eu sei que eu sempre vou te amar [Solo 1] [Riff 2] Dona do meu pensamento, você nossa história [Riff 2] Dona do meu pensamento, você nossa história [Riff 1] ( G# )
Composição: Chorão / Thiago CastanhoColaboração e revisão: Gabriel SilvaMárcio Anderson Silvaestevao denardie mais 1