Essa É Por Quem Ficou Pra Trás

Charlie Brown Jr.

Tom: G
Introdução

"lembrando q a afinação é toda em 
bemol"


E|-------------------------------
B|-------------------------------
G|-------------------------------
D|----5---5-------8---8--------5-
A|---6-6---6----6-6---6------6-6-
E|--3----3---3/6----6---6---3----

E|------------------------------------------------| 
B|------------------------------------------------| 
G|------------------------------------------------| 
D|--5---5--5-6-8-6-5-6-----5--5------8---8-----5--| 
A|--6---6------------------6-6--6----6-6---6----6-| 
E|3---3--------------------3---3-3/6----6---6--3--| 


                                                                   Riff 1

|--------------------------------
|--------------------------------
|------------8-8--8---5-5--5-----
|------------8-8--8---5-5--5--8-8
|-6-6--6---6-6--6---3-3--3--8-8--
|-3-3--3-----------------------6-

||----------------|-----------------
||----------------|-----------------
||-------------|---------------8-8-8
||-8---------|-8-8-8-8-8---x-x-x----
||8---(3x)-|-8-8-8-8-8--6-6-6----8--
||6--6---------|-6-6-6-6-6----------

--------------------------| 
--------------------------| 
---10-10-10---------------| 
x--x---x----8-8-8-8-8-----| 
8---8----8-8-8-8-8--------| 
----------------6-6-6-6-6-| 


                                  Verso

|---------------------------------
|----------------------|----------
|--10-10-10--5--10-|-8-8-8-8-8--5-
|--x--x---x----x--x--|-8-8-8-8-8--
|--8--8---8----3--8--|-6-6-6-6-6--
|----------------------|----------

||----------------------------------
||----------------------------------
||5-5-------------------------------
||5-5-5--8-8-8----------------------
||3-3-3--8-8-8----(3x)--------------
||-------------6-6-6----------------

Solo |--8----------10------------11--- |---11----11---11-----11----11--- |-8---8--8--8-----8--8---8-----8- |-------------------------------- |-------------------------------- |-------------------------------- ||11----11------------------------------------------| ||11----11------------------------------------------| ||----8-----8----5----------------------------------| ||--------------------5--8--------------------------| ||--------------------3--8--------------------------| ||-----------------------6--------------------------| Repete verso Riff 1 Parte do Baixo Solo Verso Solo Parte 2 |-------------------------------- |-------------------------------- |-------------------------------- |-------------------------------- |-6-6-6-6-6-6-6-6-6-6-6-6-6-6-6-- |-3-3-3-3-3-3-3-3/4-4-4-4-4-4-4-- ||-------------------------------------| ||-------------------------------------| ||-------------------------------------| ||--------8-8-8-8-8-8-8----------------| ||6-6-6-6-6-6-6-6-5-6------------------| ||-------------------------------------| Solo 2 |------------------------------ |---11-9-8-8p9h8--------------- |-8-----------------8---------- |---------------------8--8-6-5- |-----------------------6------ |------------------------------ ||----------------------------------------------------------------------| ||------------------------------11-9-8-8p9h8----------------------------| ||--------------------------------8----------------8~~~~~8~~~~8---------| ||6h5-6-8-6h5-6-8-6-6/8------------------------------12~~~--------------| ||----------------------------------------------------------------------| ||----------------------------------------------------------------------| Repete Parte 2
Composição: Colaboração e revisão: heldinhoEduardo Shalom