A#m
234
X13321
Gb
234
244322
Tom: G
Intro


2 vezes(Riff 1)   

E|-------------------------------
B|-------------------------------
G|--8-88888------6666-6/-8-88888-
D|--8-88888-4444-6666-6/-8-88888-
A|--6-66666-4444-4444-4/-6-66666-
E|----------2222-----------------

E|-------------- 
B|-------------- 
G|-----6666----- 
D|4444-6666----- 
A|4444-4444----- 
E|2222---------- 


Mas se todo aquele luxo te deixou 
confuso e aquela vida fútil comprou 
mais
um inútil

E|-----------------------------
B|-----------------------------
G|-----------------------------
D|--8-88888--444444/--8-88888--
A|--8-88888--444444/--8-88888--
E|--6-66666--222222/--6-66666--

E|---------------- 
B|---------------- 
G|---------------- 
D|444444---------- 
A|444444---------- 
E|222222---------- 



Solo 1

E|--------------------------------
B|--------------------------------
G|--------------------------------
D|------3-3-1-1-3-3---------------
A|--1-1-------------4-4-1-1-----1-
E|--------------------------4-4---

E|------------------------------- 
B|------------------2-2-2-1---1-- 
G|--------------------------3---- 
D|------3-3-1-1-3-3-------------- 
A|1-1-1-------------------------- 
E|------------------------------- 



Solo 2

E|----6p4-2-4p2-1-2p1--1-1----6p4-
B|--4------------------2-2-2/4----
G|--------------------------------
D|--------------------------------
A|--------------------------------
E|--------------------------------

E|2-4p2-1-2p1--1---------- 
B|-------------2--2/4----- 
G|---------------------3-- 
D|------------------------ 
A|------------------------ 
E|------------------------ 



E|------------1---1---------------
B|----4/6--2----2---2-------4/6-2-
G|--3------------------3-3--------
D|--------------------------------
A|--------------------------------
E|--------------------------------

E|-1---1------------------ 
B|---2---2---------------- 
G|------------------------ 
D|------------------------ 
A|------------------------ 
E|------------------------ 



     A#m      Gb
E|--1-x-1-x--2-x-2-x--- 
B|--2-x-2-x--2-x-2-x--- 
G|--3-x-3-x--3-x-3-x--- 
D|--3-x-3-x--4-x-4-x--- 
A|--1-x-1-x--4-x-4-x--- 
E|-----------2-x-2-x--- 


              A#m             Gb  
Foi você quem colocou eles lá mas 
                A#m
eles não estão fazendo
F# (faz um slide de acordes, de F para F#, podendo voltar para F) nada por vocês (...) Dormem sossegados os caras do senado, dormem sossegados que fizeram esse estrago, dormem sossegados os caras do senado, E|-------------------------------- B|------4---------6---6---------4- G|------------6-8---8---6--------- D|--------6h8-------------8------- A|--4h6---------------------4h6--- E|-------------------------------- E|----------------- B|----------------- G|----6-----3p1---- D|6h8---4h6-------- A|----------------- E|----------------- dormem sossegados os que pintaram esse quadro... E|---------------------------------------- B|---------------------------------------- G|88888888888888888888888888888888888----- D|88888888888888888888888888888888888----- A|66666666666666666666666666666666666----- E|---------------------------------------- Só você vai saber lidar com o mal que há em você (...) Riff 1 E|------------------------------- B|------------------------------- G|--8-88888------6666-6/-8-88888- D|--8-88888-4444-6666-6/-8-88888- A|--6-66666-4444-4444-4/-6-66666- E|----------2222----------------- E|-------------- B|-------------- G|-----6666----- D|4444-6666----- A|4444-4444----- E|2222---------- Solo (2x) E|----6p4-2-4p2-1-2p1-1-1------ B|--4-----------------2-2-2/4-- G|----------------------------- D|----------------------------- A|----------------------------- E|----------------------------- E|6p4-2-4p2-1-2p1--1---------- B|-----------------2--2/4----- G|-------------------------3-- D|---------------------------- A|---------------------------- E|---------------------------- E|-----------1---1---------------- B|----4/6--2---2---2-------6p4-2-- G|--3-----------------3-3--------- D|-------------------------------- A|-------------------------------- E|-------------------------------- E|------------------------- B|4-2-2h4-2---------------- G|------------------------- D|------------------------- A|------------------------- E|------------------------- Deixe d ser covarde homem... E|--1-x-1-x--2-x-2-x--- B|--2-x-2-x--2-x-2-x--- G|--3-x-3-x--3-x-3-x--- D|--3-x-3-x--4-x-4-x--- A|--1-x-1-x--4-x-4-x--- E|-----------2-x-2-x--- (Em diante) Dormem em despreocupados os caras E|-------------------------------- B|------4---------6---6---------4- G|------------6-8---8---6--------- D|--------6h8-------------8------- A|--4h6---------------------4h6--- E|-------------------------------- bdo senado... E|----------------- B|----------------- G|----6-----3p1---- D|6h8---4h6-------- A|----------------- E|----------------- Vem me raz mais paz... E|------------------------------- B|------------------------------- G|--8-88888------6666-6/-8-88888- D|--8-88888-4444-6666-6/-8-88888- A|--6-66666-4444-4444-4/-6-66666- E|----------2222----------------- t E|-------------- B|-------------- G|-----6666----- D|4444-6666----- A|4444-4444----- E|2222---------- Repete solo. E|-------------------------------- B|-------------------------------- G|-------------------------------- D|------3-3-1-1-3-3--------------- A|--1-1-------------4-4-1-1-----1- E|--------------------------4-4--- E|------------------------------- B|------------------2-2-2-1---1-- G|--------------------------3---- D|------3-3-1-1-3-3-------------- A|1-1-1-------------------------- E|-------------------------------
Composição: Colaboração e revisão: Bianca Limaheldinho