Falar, Falar

Charlie Brown Jr.

Tom: G

Intro

e---------------------------------
B---------------------------------
G---------------------------------
D---------------------4h6-4-------
A-4h6-6-6-6-4-4-4h6-4-------6-6-6-
E---------------------------------

e|----------------------------------
B|----------------------------------
G|----------------------------------
D|----------4h6---------------------
A|4-4-4h6-4-----4h6-6-6-6-4-4-4h6-4-
E|----------------------------------

e|-------------------------  
B|-------------------------  
G|-------------------------  
D|4h6-4------------------*-- 
A|------6-6-6-4-4h3h2h1h0--  
E|-------------------------  



Refrão

e---------------------------------
B---------------------------------
G---------------------------------
D-----------------------5-5-5-----
A-----------------------3-3-3-5-5-
E-0h2-2-2-2-0-2-3-2-2-2-------3-3-

e|------          
B|------          
G|------(4 VEZES) 
D|------          
A|4-4---          
E|2-2---          



Depois do 2º refrão tem uma parte assim

e------------------------   
B------------------------   
G------------------------(7 
D--------------*---------   
A-5h7-7-7-7h(5)--5-4-5---   
E----------------3-2-3---   

e|       
B|       
G|VEZES) 
D|       
A|       
E|       


No final faz assim e---------------------- B---------------------- G---------------------- D--------------*------- A-5h7-7-7-7h(5)--5-4--- E----------------3-2--- * 4h3h2h1h0 =escorrega a mão pelas notas e deixa a nota 0 tocar sozinha. Não dê palhetada para tocá-la. * (5) =a nota não precisa ser tocada, mas se for ficará mais legal. Música tocada no tom normal. h =slide. Mesmo que escorregar.
Composição: Charlie Brown Jr.Colaboração e revisão: