Hoje De Noite

Charlie Brown Jr.

Tom: G
[Intro] Riff 1
        Riff 2

Riff 1
Hoje de noite, deixa a porta aberta
Eu quero entrar
Nunca estarei pensando em algo mal
Prá nós dois


      Depois daquela noite eu resolvi não olhar pra trás

E|-5---5-------5-----5-----5------
B|-5---5-------5-----5-----5------
G|-5---5-------5-----5-----5------
D|-7---7-------7-----7-----7------
A|-7---7-------7-----7-----7------
E|-5---5-------5-----5-----5------

E|8--8-----8----8---8--| 
B|8--8-----8----8---8--| 
G|8--8-----8----8---8--| 
D|10-10----10---10--10-| 
A|10-10----10---10--10-| 
E|8--8-----8----8---8--| 



      Nunca duvidar não subestimar

E|-5-5---5-5----5----8---8--8-| 8-
B|-5-5---5-5----5----8---8--8-| 8-
G|-5-5---5-5----5----8---8--8-| 8-
D|-7-7---7-7----7----10--10-10-10-
A|-7-7---7-7----7----10--10-10-10-
E|-5-5---5-5----5----8---8--8-| 8-

E|-8--| 
B|-8-|  
G|-8-|  
D|10-|  
A|10-|  
E|-8--| 



      Nunca ser tão tão legaaaaaaal

E|-5-5---5-5----5----8---8--8-| 8-
B|-5-5---5-5----5----8---8--8-| 8-
G|-5-5---5-5----5----8---8--8-| 8-
D|-7-7---7-7----7----10--10-10-10-
A|-7-7---7-7----7----10--10-10-10-
E|-5-5---5-5----5----8---8--8-| 8-

E|-8--| 
B|-8-|  
G|-8-|  
D|10-|  
A|10-|  
E|-8--| 



    Tão legal yeah

E|-5-5---5-5--3--3--3--3-| 
B|-5-5---5-5--3--3--3--3-| 
G|-5-5---5-5--3--3--3--3-| 
D|-7-7---7-7--5--5--5--5-| 
A|-7-7---7-7--5--5--5--5-| 
E|-5-5---5-5--3--3--3--3-| 


Riff 1
Nunca estarei pensando em algo mal 
pra ninguém
Hoje de noite, deixa a porta aberta
Eu quero entrar
Não olhar pra trás
Nunca duvidar, não subestimar [Refrão] Riff 1 O que envelhece há muito tempo É rumo errado, está na mão de quem te julga Vá tome um gole mas, por isso nunca implore Dê um jeito, se vire, providencie e se crie Não fique parado, interfira nos fatos Riff 2 / Riff 1 Preste atenção na sua história Pense nos seus atos, porque dinheiro nunca foi superioridade Tanto frango endinheirado infeliz pela cidade Dinheiro nunca foi superioridade Riff 1 Menininha de família, pai promíscuo e mãe otária Se apaixona pelo mundo que rola na minha área Eu já vi muito disso, eu já passei por isso Ha! ha! pega nada, eu já passei por isso! [Refrão] Riff 3 Riff 1 Não olhar pra trás Nunca duvidar, não substimar Não olhar pra trás Nunca duvidar, não substimar Não olhar pra trás Nunca duvidar, não substimar (yeah) [Refrão] Riff 1 E|---------------| B|-------------0-| G|----------0----| D|---0-2------2--| A|-------3-------| E|-0-------------| Riff 2 E|-------------------------------| B|-------------------------------| G|-1/9~~~---9------------4-------| D|-------10---10-8-----5---5-4-2-| A|-------------------------------| E|-------------------------------| Riff 3 E|----------------| B|----------------| G|----------------| D|---0-2----2---0-| A|-------3----3---| E|-0--------------|
Composição: ChorãoColaboração e revisão: Vitor AlvesMarcelo CamilloGabriel Tôrres