Hoje Sou Eu Que Não Mais Te Quero

Charlie Brown Jr.

Bb
234
X13331
Cm
234
X35543
Eb
234
X65343
Fm
34
133111
G#m
34
466444
Gm
34
355333
Tom: G
Intro:

(Duas vezes abafado)


E|---------------------------
B|---------------------------
G|---------------------------
D|---------------------------
A|---------------------------
E|---11111111----33333333----

E|---------------------------| 
B|---------------------------| 
G|---------------------------| 
D|---------------------------| 
A|-----------11111111--------| 
E|44444444-------------------| 


(Duas vezes)


E|-------------------------------
B|-------------------------------
G|--5--/--7--/--8--/--10------12-
D|--x--/--x--/--x--/--x-------x--
A|--3--/--5--/--6--/--8-------10-
E|-------------------------------

E|-------------| 
B|-------------| 
G|/-8----------| 
D|/-x---6------| 
A|/-6---x------| 
E|------4------| 


A gente passa o dia junto, A gente 
fala sobre tudo
Mas eu sinto você tão longe

Você diz sempre que me ama, mas não 
age como tal
Será que amar demais, às vezes faz 
tão mal?
                       (00:30)

E|---------6----------------------
B|---8-8---8--9--8---8-8---8-8-8--
G|---8-8---8--8--8---7-7---7-7-7--
D|-6-------6--6--6---5-5---5-5-5--
A|--------------------------------
E|--------------------------------

E|----------------------------------
B|-6-6-9-8-6------------------------
G|-8-8-8-8-8---7-7-8-7-7------------
D|-8-8-8-8-8---5-5-5-5-5------------
A|----------------------------------
E|----------------------------------


Eu me pergunto por que as coisas são
 assim
Todo dia eu recomeço muito perto do 
fim
Mas o fato é que fomos, somos e 
seremos sempre muito fortes
                      (00:51)

E|-------------------------------
B|-6-6-8-6-----6-6-8-6-------8-8-
G|---------5-----------5-----8-8-
D|-5-5-5-5-5---5-5-5-5-5---------
A|---------------------------6-6-
E|-------------------------------

E|-------------------------------------- 
B|8-8-8--------------------------------- 
G|8-8-8---7-7-8-7-7--------------------- 
D|--------5-5-5-5-5--------------------- 
A|6-6-6--------------------------------- 
E|-------------------------------------- 


A gente corre o tempo todo atrás de 
um tal de ideal
Baseado num formato que talvez não 
seja o ideal
Nem pra você nem pra mim, nem pra 
você nem pra mim


E|-------------------------------
B|-6-6-8-6-----6-6-8-6-------8-8-
G|---------5-----------5-----8-8-
D|-5-5-5-5-5---5-5-5-5-5---------
A|---------------------------6-6-
E|-------------------------------

E|-------------------------------------- 
B|8-8-8--------------------------------- 
G|8-8-8---7-7-8-7-7--------------------- 
D|--------5-5-5-5-5--------------------- 
A|6-6-6--------------------------------- 
E|-------------------------------------- 


Eu olho pra você, eu vejo muito do 
que eu quero
Mas o mesmo de você, sinceramente, 
hoje eu nem mais espero
Já nem sei mais se eu quero, nem sei
 se quero
                      (01:13)

E|---------6----------------------
B|---8-8---8--9--8---8-8---8-8-8--
G|---8-8---8--8--8---7-7---7-7-7--
D|-6-------6--6--6---5-5---5-5-5--
A|--------------------------------
E|--------------------------------

E|----------------------------------
B|-6-6-9-8-6------------------------
G|-8-8-8-8-8---7-7-8-7-7------------
D|-8-8-8-8-8---5-5-5-5-5------------
A|----------------------------------
E|----------------------------------


Você era o meu céu, era meu chão, 
era meu mundo
O nosso sonho era rodarmos juntos o 
mundo
Mas nós nos perdemos pelo mundo
Dia após dia cada um no seu mundo


E|---------6----------------------
B|---8-8---8--9--8---8-8---8-8-8--
G|---8-8---8--8--8---7-7---7-7-7--
D|-6-------6--6--6---5-5---5-5-5--
A|--------------------------------
E|--------------------------------

E|----------------------------------
B|-6-6-9-8-6------------------------
G|-8-8-8-8-8---7-7-8-7-7------------
D|-8-8-8-8-8---5-5-5-5-5------------
A|----------------------------------
E|----------------------------------


Cada um no seu mundo
Mundo esse que era o nosso mundo
Que era o nosso mundo
(01:35) E|------------------------------- B|-6-6-8-6-----6-6-8-6-------8-8- G|---------5-----------5-----8-8- D|-5-5-5-5-5---5-5-5-5-5--------- A|---------------------------6-6- E|------------------------------- E|-------------------------------------- B|8-8-8--------------------------------- G|8-8-8---7-7-8-7-7--------------------- D|--------5-5-5-5-5--------------------- A|6-6-6--------------------------------- E|-------------------------------------- Eu olho pra você, eu vejo muito do que eu quero Mas o mesmo de você, sinceramente, hoje eu nem mais espero Já nem sei mais se eu quero, nem sei se quero E|------------------------------- B|-6-6-8-6-----6-6-8-6-------8-8- G|---------5-----------5-----8-8- D|-5-5-5-5-5---5-5-5-5-5--------- A|---------------------------6-6- E|------------------------------- E|-------------------------------------- B|8-8-8--------------------------------- G|8-8-8---7-7-8-7-7--------------------- D|--------5-5-5-5-5--------------------- A|6-6-6--------------------------------- E|-------------------------------------- Hoje sou eu que não mais te quero Hoje sou eu que não mais te espero Hoje sou eu que não mais te quero (01:57) E|-------------------------------- B|-------------------------------- G|----5----5----7---7---7---8---8- D|--3----3----5---5---5---6---6--- A|-------------------------------- E|-------------------------------- E|---------------------------------- B|---------------------------------- G|--8---8----8---------------------- D|6---6----6------------------------ A|---------------------------------- E|---------------------------------- Hoje sou eu que não mais te espero G|----5----5----7---7---7---10---- D|--3----3----5---5---5---8------- G|------------------- D|------------------- ( Fm Bb Cm Gm ) E|-------------------------------- B|-------------------------------- G|-------------------------------- D|-------------------------------- A|-10p11p10-8-10---10p11p10-8-10-- E|-------------------------------- E|-------------------------------- B|-------------------------------- G|-------------------------------- D|-------------------------13p11-- A|-10p11p13~-----13p11-11--------- E|-------------------------------- E|-------------| B|-------------| G|-------------| D|13p11-13p15~-| A|-------------| E|-------------| E|-------------------------------- B|-------------16-15--13--15~----- G|---------15--------------------- D|---15p17------------------------ A|-------------------------------- E|-------------------------------- E|---------------------------------| B|---------------------------------| G|-16-15---------------------------| D|--------17----15--13~------------| A|---------------------------------| E|---------------------------------| Fm A gente fala sobre tudo A gente passa o dia junto Bb Mas eu sinto você tão longe Cm Você diz sempre que me ama Mas não age como tal Gm Será que amar demais as vezes faz tão mal Fm Eu me pergunto porque as coisas são assim Bb Todo dia eu recomeço muito perto do fim Cm Mas o fato é que fomos, somos e Gm seremos sempre muito fortes Fm A gente corre o tempo todo atrás de um tal de ideal Bb Baseado num formato que talvez não seja o ideal Cm Nem pra você, nem pra mim Gm Nem pra você, nem pra mim Fm Eu olho pra você, eu vejo muito do que eu quero Bb Mas o mesmo de você, sinceramente, eu já nem mais espero Cm Já nem sei mais se eu quero Gm Nem sei se quero Eb Hoje sou eu que não mais te quero Bb Hoje sou eu que não mais te espero G#m Hoje sou eu que não mais te quero Fm Hoje sou eu que não mais te espero Eb Hoje sou eu que não mais te quero Bb Hoje sou eu que não mais te espero G#m Hoje sou eu que não mais te quero Fm Hoje sou eu que não mais te espero E|-------------------------------- B|-9-9-9--8-8-8--11-11-11--9-9-9-- G|-x-x-x--x-x-x--x--x--x---x-x-x-- D|-6-6-6--5-5-5--8--8--8---6-6-6-- A|-------------------------------- E|-------------------------------- E|--------------------| B|--------------------| G|----12-/-8----------| D|----x--/-x---6------| A|----10-/-6---x------| E|-------------4------| G#m Hoje sou eu que não mais te quero Fm Hoje sou eu que não mais te espero G#m Hoje sou eu que não mais te quero Fm Hoje sou eu que não mais te espero E|------------------------------- B|------------------------------- G|--5--/--7--/--8--/--10------12- D|--x--/--x--/--x--/--x-------x-- A|--3--/--5--/--6--/--8-------10- E|------------------------------- E|--------| B|--------| G|/-8-----| D|/-x---6-| A|/-6---x-| E|------4-|
Composição: ChorãoColaboração e revisão: Ulysses VerzaUbirajara Junioranderson gatti