A
X0P2220
A7M(9)
111ª23
X01113120
A9
134
579XXX
B11
1234
799800
B4
134
799X00
C#9
134
91113XXX
C#m
1234
X46650
C#m7
134
91111X00
E
111ª34
011141300
E5
134
079900
E7M
123
079800
Tom: G
Intro:

C#m7  E  A9  2x

C#m  E5  A9  2x

#1t1#1
   C#m7
#1t2#E|-0--0--0--0--0--0--0----------------------|
B|-0--0--0--0--0--0--0----------------------|
G|-x--x--x--x--x--x--x----------------------|
D|-11-11-11-11-11-11-11---------------------|
A|-11-11-11-11-11-11-11---------------------|
E|-9--9--9--9--9--9--9----------------------|#/1t2##/1t1#

#2t1#2
   E
#2t2#E|-0--0--0--0--0--0--0----------------------|
B|-0--0--0--0--0--0--0----------------------|
G|-13-13-13-13-13-13-13-x-x-----------------|
D|-14-14-14-14-14-14-14-x-x-----------------|
A|-11-11-11-11-11-11-11-x-x-----------------|
E|-0--0--0--0--0--0--0--x-x-----------------|#/2t2##/2t1#

#3t1#3
   A9
#3t2#E|-0-0-0-0-0--------------------------------|
B|-0-0-0-0-0--------------------------------|
G|-6-6-6-6-6--------------------------------|
D|-7-7-7-7-7--------------------------------|
A|-7-7-7-7-7--------------------------------|
E|-5-5-5-5-5--------------------------------|#/3t2##/3t1#


#4t1#4
#4t2#E|---------0--0--0---0--0--0---0---0---0----|
B|---------0--0--0---0--0--0---0---0---0----|
G|-x--x-x--16-16-16--14-14-14--13--13--13---|
D|-x--x-x-----------------------------------|
A|-x--x-x--14-14-14--12-12-12--11--11--11---|
E|-0--0-0-----------------------------------|#/4t2##/4t1#


#5t1#5
   C#m
#5t2#E|-0-------0----0---------------------------|
B|-5-------5----5---/-----------------------|
G|-6-—6-6--6--6-6--6/-----------------------|
D|-6-—6-6--6--6-6--6/-----------------------|
A|-4-—4-4--4--4-4--4/-----------------------|
E|------------------------------------------|#/5t2##/5t1#

#6t1#6
   E5
#6t2#E|----0-------0----x-x----------------------|
B|----0-------0----x-x----------------------|
G|-9--9--9-9--9--9-9-9----------------------|
D|-9--9--9-9--9--9-9-9----------------------|
A|-7--7--7-7--7--7-7-7----------------------|
E|------------------------------------------|#/6t2##/6t1#


#7t1#7
   A9
#7t2#E|-0-------0----0------0-------0-----x-x----|
B|-0-------0----0------0-------0-----x-x----|
G|-4--4-4--4--4-4---4--4-------4-----4-4----|
D|-2--2-2--2--2-2---2--2--2-2--2--2--2-2----|
A|-0--0-0--0--0-0---0--0--0-0--0--0--0-0----|
E|------------------------------------------|#/7t2##/7t1#


Primeira Parte:

 C#m7                       E
Hoje eu vou sair pra encontrar o amor
       A9
Que espero há tanto tempo

E ainda não rolou
   C#m7
O vento diz que é hoje 
           E
Em meio à multidão
        A9
Que eu vou encontrar a dona 

Do meu coração


Segunda Parte:

    C#m   E5
Aí sempre
 A9
Sorrir e chorar e ter alguém

Preu compartilhar
 C#m   E5
Sempre
   A9
Viver para alguém que me ama e dividir
 C#m   E5
Sempre
   A7M(9)
Felicidade e amor

Então


Refrão:

      C#m   E5     B11               A9
Me encontra    ou deixa eu te encontrar
      C#m   E5     B11               A9
Me encontra    ou deixa eu te encontrar
     
      C#m   E5     B11               A9
Me encontra    ou deixa eu te encontrar
      C#m   E5     B11               A9
Me encontra    ou deixa eu te encontrar

C#m  E5      A9
         Ou deixa eu te encontrar

C#m  E5  A



Repete a Primeira Parte:


C#m7  E  A9  2x

C#m7                 E
     Eu não conheço todas as flores
A9
   Mas vou mandar todas que eu puder
C#m7                    E
     Vivemos tempos de loucos amores
A9
   Só é feliz quem sabe o que quer



Repete o Refrão:

      C#m   E5     B11               A9
Me encontra    ou deixa eu te encontrar
      C#m   E5     B11               A9
Me encontra    ou deixa eu te encontrar
     
      C#m   E5     B11               A9
Me encontra    ou deixa eu te encontrar
      C#m   E5     B11               A9
Me encontra    ou deixa eu te encontrar


Terceira Parte:

C#9  A9

        E7M
Camisa 10 joga bola até na chuva

Eu não tô envolvido

Mas meu papo não faz curva

C#9  A9  E7M


Quarta Parte:


1

#8t1#   C#m7
#8t2#E|------------------------------------------|
B|------------------------------------------|
G|-----------------/16-16-16-14-14-14-13-13-|
D|-11------11-------------------------------|
A|-11------11------/14-14-14-12-12-12-11-11-|
E|-9--9-9--9--0-0---------------------------|#/8t2##/8t1#

2

#9t1#   B4
#9t2#E|------------------------------------------|
B|------------------------------------------|
G|-----------------/14-14-14-13-13-13-9--9--|
D|-9-------9--------------------------------|
A|-9-------9-------/12-12-12-11-11-11-7--7--|
E|-7--7-7--7--0-0---------------------------|#/9t2##/9t1#


C#m7
     Fico pensando onde está você
        B4
E se você estaria pensando 

Em me encontrar
      C#m7
Como sou, onde estou 

E onde quero chegar
      B4
Como sou, como é que vai ser

E onde vou te levar
     C#m7
Mas se você me ver, pode acenar pra mim
 B4
Já pensou que louco te encontrar assim
           C#m7
Eu vou na boa, vou na fé

Sei que vou te encontrar
    B4
E quando eu te encontrar 

Nós vamos comemorar


Refrão Final:

      C#m   E5     B11               A9
Me encontra    ou deixa eu te encontrar
      C#m   E5     B11               A9
Me encontra    ou deixa eu te encontrar
     
      C#m   E5     B11               A9
Me encontra    ou deixa eu te encontrar
      C#m   E5     B11               A9
Me encontra    ou deixa eu te encontrar
      C#m
Te encontra
Composição: Chorão / Thiago CastanhoColaboração e revisão: Gustavo CunhaPedro Kronbauer
Videoaula Me Encontra (violão completa)