My Mini Ramp

Charlie Brown Jr.

Tom: G

Aqui vai a cifra dessa musica Cha
E---------------------------------
B---------------------------------
G--10-10-10-10-12-10-08--08-10-10-
D---------------------------------
A--08-08-08-08-10-08-06--06-08-08-
E---------------------------------
  rlie Brown Jr. na veia dos irmao 
E|--------------------|   
B|--------------------|   
G|10-10-08-07-08-10---|4x 
D|--------------------|   
A|08-08-06-05-06-08---|   
E|--------------------|   



E-------------------------|   
B-------------------------|   
G-10-----8-----10---------|4x 
D-10-----8-----10---------|   
A-08-----6-----08---------|   
E-------------------------|   



E--------------|   
B--------------|   
G--------------|4x 
D--6----8------|   
A--6----8------|   
E--4----6------|   



E-------------------------|   
B-------------------------|   
G-10-----8-----10---------|4x 
D-10-----8-----10---------|   
A-08-----6-----08---------|   
E-------------------------|   


E--------------| B--------------| G--------------|8x D--6----8------| A--6----8------| E--4----6------| E--------------------------------- B--------------------------------- G--10-10-10-10-12-10-08--08-10-10- D--------------------------------- A--08-08-08-08-10-08-06--06-08-08- E--------------------------------- E|--------------------| B|--------------------| G|10-10-08-07-08-10---|4x D|--------------------| A|08-08-06-05-06-08---| E|--------------------| E---------------| B---------------| G--10-----------|4x D-----------6---| A--08-------6---| E-----------4---| E--------------------------------- B--------------------------------- G--10-10-10-10-12-10-08--08-10-10- D--------------------------------- A--08-08-08-08-10-08-06--06-08-08- E--------------------------------- E|--------------------| B|--------------------| G|10-10-08-07-08-10---|4x D|--------------------| A|08-08-06-05-06-08---| E|--------------------| E-------------------------| B-------------------------| G-10-----8-----10---------|4x D-10-----8-----10---------| A-08-----6-----08---------| E-------------------------| E--------------| B--------------| G--------------|8x D--6----8------| A--6----8------| E--4----6------| E--------------------------------- B--------------------------------- G--10-10-10-10-12-10-08--08-10-10- D--------------------------------- A--08-08-08-08-10-08-06--06-08-08- E--------------------------------- E|--------------------| B|--------------------| G|10-10-08-07-08-10---|4x D|--------------------| A|08-08-06-05-06-08---| E|--------------------|
Composição: Champignon / Chorão / Marcão Britto / PeladoColaboração e revisão: