Não Uso Sapato

Charlie Brown Jr.

A
123
X02220
C
123
X32010
D
123
XX0232
D/F#
1234
2X0232
E
123
022100
G
123
320003
Tom: G
Intro:


      C             E             
E|-------------------------------
B|---------0-1-3---------0-1-3---
G|---0-0-0---------0-0-0---------
D|-----------------------------0-
A|-3-----------------------------
E|---------------0---------------
  D             C
E|-------------------------|       
B|------0-1-3---------------|      
G|0-0-0---------------------| (4x) 
D|--------------0-0-0---0---|      
A|------------3-------3---0-|      
E|--------------------------|      


G        A        C
  Eu vou   mudar tudo que não me 
convém,
G                           D
hoje eu tenho tudo o que podia 
querer
        C
mas dinheiro não é tudo tenho muito 
a fazer.


      (2x)     G   A      C         
E|---------|----------|---------
B|-------8-|-888--888-|-121212--
G|----7----|-xxx--xxx-|-x-x-x---
D|-5-------|-555--555-|-9-9-9---
A|---------|----------|---------
E|---------|----------|---------
         G   D      C
E|-------|----------|-7777-/-
B|121212-|-888--777-|-xxxx---
G|x-x-x--|-xxx--xxx-|-5555---
D|9-9-9--|-555--444-|--------
A|-------|----------|--------
E|-------|----------|--------

10101010
x-x-x-x-
7-7-7-7-
--------
--------
--------

u|10-| 
u|x--| 
u|7--| 
u|---| 
u|---| 
u|---| 


    G                       
Quem não respeita o pai, não 
    A
respeita ninguém
            C
por que um homem de verdade vai ser 
pai também
G               D
Ame o seu pai, mesmo se ele for
   C
Um porco capitalista

(Refrão)

  G         D           C
Eu não sei   fazer poesia
           G          A (Solo 1)  C
mais que se foda!

G eu odeio gente chick e não uso D/F# C sapato. G A (Solo 2) mais que se foda! C Solo 1: E|---------------------------| B|--------0h1-0h1------------| G|----------------0--------0-| D|------------------0----0---| A|-2/3-33--------------3-----| E|---------------------------| (solo 2) E|-------------------------------- B|-------------------------------- G|-------------------------------- D|-7/9--9/12-12--9-12-9----------- A|----------------------12-10----- E|-------------------------------- (Intro) G A Hoje você picha, quem já te ajudou C e vem falando mau de quem já te fortaleceu G Mas o mau vem em verdade e não se D passa por palavras C Você perdeu a moral e quem perdeu, perdeu. G A Se você pisar na bola ei rapaz C você vai ser cobrado G D Se você pisar na bola ei muleque C tu vai ser cobrado Refrão: G D C Eu não sei fazer poesia G A (Solo 1) mais que se foda! C G eu odeio gente chick e não uso D/F# C sapato. G A (Solo 2) mais que se foda! C (G Am7 C) 4x (Palm-Muting) Auê, auê, auê, auêêêêêêê...!!!! Everybody move !!! Everybody move !!! Everybody move !!! move !!! move !!! moveeeee.... !!! (Refrão) G D C Eu não sei fazer poesia G A (Solo 1) mais que se foda! C G eu odeio gente chick e não uso D/F# C sapato. G A (Solo 2) mais que se foda! C ( A C A C G ) E|-------|-------| e|----| B|-------|-------| B|----| G|-------|-5-5-5-| (2x) G|-4--| D|-7-7-7-|-5-5-5-| D|-5--| A|-7-7-7-|-3-3-3-| A|-5--| E|-5-5-5-|-------| E|-3--| E| B| G|(1x) D| A| E|
Composição: Champignon / Chorão / Marcão / PeladoColaboração e revisão: Gustavo LagoBreno Marcos SaavedraRicardoe mais 5