No Passo a Passo

Charlie Brown Jr.

B
234
X24442
C#m
234
X46654
D
123
XX0232
D#
234
X65343
E
123
022100
G#m
34
466444
Tom: G

base riff: 4x( C#m E B )


e|---------------------------|---
B|---------------------------|---
G|---------------------------|---
D|-----------2-2-1-1---------|---
A|---2/4-4-4---------4-2-4---|---
E|---------------------------|---

e|--------------------------|-------
B|--------------------------|-------
G|--------1-1---------------|-------
D|------------4-4-2-1-2-----|-------
A|2/4-4-4-------------------|---2/4-
E|--------------------------|-------

----------------------| 
----------------------| 
----------------------| 
----2-2-1-1-----------| 
4-4---------4-2-4-----| 
----------------------| 



e|---------------------------| 
B|---------------------------| 
G|---------------------------| 
D|---2/11--------------------| 
A|---------------------------| 
e|---------------------------| 


intro: 4x( G#m B D# E ) 4x( C#m E 

B )

            C#m            E
No passo a passo eu chego lá
    B
Minha vida é muito louca
 C#m            E               B
Eu não dou atenção pro que sai da 
sua boca
C#m E Eu vou tocar em frente B Porque o bonde aqui não pára C#m E B Skate, Rock n' Roll, Hip-Hop, é minha cara C#m E B Eu sou como sou, já falei pra todo mundo C#m E Santos é o meu lugar, B (C#m E B ) Mas eu vivo pelo mundo Riff Inicial C#m D Original rude boy on the house C#m D Original skateboard vibration Old school style We don't stop Check it all Repete tudo Solo: ( C#m D ) Repete intro
Composição: choraoColaboração e revisão: Igor ParentePaulo PietroRuan AndradeKJr CDs