O Errado Que Deu Certo

Charlie Brown Jr.

Bm
234
X24432
C
123
X32010
C5
134
X355XX
D
123
XX0232
D/F#
1234
2X0232
E5
12
022XXX
Em
12
022000
F#m
34
244222
G
123
320003
Tom: G
[Introdução]


   Em           D/F#          G
E|-------------------------------
B|-----8-------------------------
G|------------------11-----------
D|---9---9--------9----9---------
A|-7-------7----9--------9----10-
E|-------------------------------

E|-------------------------| 
B|---12-----------12-------| 
G|------12-----------12----| 
D|12-----------12----------| 
A|----------10-------------| 
E|-------------------------| 


   Bm             D               

C               Em


E|-10---------10--14----------14--
B|--------------------------------
G|----11---11--------14----14-----
D|-------9--------------12--------
A|--------------------------------
E|--------------------------------

E|12----------12--15----------15-| 
B|-------------------------------| 
G|---12----12--------16----16----| 
D|------10--------------14-------| 
A|-------------------------------| 
E|-------------------------------| 


[Primeira Parte]


   Em           D/F#          G
E|-------------------------------
B|-----8-------------------------
G|------------------11-----------
D|---9---9--------9----9---------
A|-7-------7----9--------9----10-
E|-------------------------------

E|-------------------------| 
B|---12-----------12-------| 
G|------12-----------12----| 
D|12-----------12----------| 
A|----------10-------------| 
E|-------------------------| 


Mudei minha história e foi melhor 
pra mim

   D               F#m             

C               Em


E|-14----------14--17----------17-
B|--------------------------------
G|----14----14--------18----18----
D|-------12--------------16-------
A|--------------------------------
E|--------------------------------

E|-12----------12--15---------15-| 
B|-------------------------------| 
G|----12----12--------16----16---| 
D|-------10--------------14------| 
A|-------------------------------| 
E|-------------------------------| 


Nem sempre o que a vida me pede é 
aquilo que a vida me dá

Em            D/F#            G
Se eu corro atrás do que é melhor 
pra mim

   Bm             D               

C               Em


E|-10---------10--14----------14--
B|--------------------------------
G|----11---11--------14----14-----
D|-------9--------------12--------
A|--------------------------------
E|--------------------------------

E|12----------12--15----------15-| 
B|-------------------------------| 
G|---12----12--------16----16----| 
D|------10--------------14-------| 
A|-------------------------------| 
E|-------------------------------| 


Deve ser porque meu tempo de volta o
 seu dinheiro não traz

                 Em
Com o coração na mão
         D/F#          G
Minha mente voa livre, leve, louco, 
bicho solto

   Bm             D               

C               Em


E|-10---------10--14----------14--
B|--------------------------------
G|----11---11--------14----14-----
D|-------9--------------12--------
A|--------------------------------
E|--------------------------------

E|12----------12--15----------15-| 
B|-------------------------------| 
G|---12----12--------16----16----| 
D|------10--------------14-------| 
A|-------------------------------| 
E|-------------------------------| 


Bem melhor, bem melhor

Faça da sua vida algo melhor do que 
já viu e ouviu sim ou não

       Em                      D/F#
Eu não busco a perfeição em ninguém
              G
Não quero que busque isso em mim

   D               F#m             

C               Em


E|-14----------14--17----------17-
B|--------------------------------
G|----14----14--------18----18----
D|-------12--------------16-------
A|--------------------------------
E|--------------------------------

E|-12----------12--15---------15-| 
B|-------------------------------| 
G|----12----12--------16----16---| 
D|-------10--------------14------| 
A|-------------------------------| 
E|-------------------------------| 


Eles querem que você se sinta mal

Porque é assim que eles se sentem 
bem

     Em                D/F#
Mas, tudo que é bom me lembra você
G
Vem comigo até o fim

   Bm             D               

C               Em


E|-10---------10--14----------14--
B|--------------------------------
G|----11---11--------14----14-----
D|-------9--------------12--------
A|--------------------------------
E|--------------------------------

E|12----------12--15----------15-| 
B|-------------------------------| 
G|---12----12--------16----16----| 
D|------10--------------14-------| 
A|-------------------------------| 
E|-------------------------------| 



Em D/F# G Mudei minha história e foi melhor pra mim Bm D E|-10---------10--14----------14-| B|-------------------------------| G|----11---11--------14----14----| D|-------9--------------12-------| A|-------------------------------| E|-------------------------------| Nem sempre o que a vida me pede é C5 C5 C5 E5 aquilo que a vida me dá [Instrumental] 2x E|----------------------------| B|----------------------------| G|-----------------7----------| D|------------7h9----9-7------| A|-5/7-7-7-7-------------7----| E|----------------------------| E| B| G|(3x) D| A| E| E|----------------------------| B|-------------------------10-| G|-----------------7--9/11----| D|------------7h9-------------| A|-5/7-7-7-7------------------| E|----------------------------| [Ponte] Em D/F# G E|------------------------------- B|-----8------------------------- G|------------------11----------- D|---9---9--------9----9--------- A|-7-------7----9--------9----10- E|------------------------------- E|-------------------------| B|---12-----------12-------| G|------12-----------12----| D|12-----------12----------| A|----------10-------------| E|-------------------------| Leve essa música Bm D C Em E|-10---------10--14----------14-- B|-------------------------------- G|----11---11--------14----14----- D|-------9--------------12-------- A|-------------------------------- E|-------------------------------- E|12----------12--15----------15-| B|-------------------------------| G|---12----12--------16----16----| D|------10--------------14-------| A|-------------------------------| E|-------------------------------| E traz um sorriso Em D/F# G E|------------------------------- B|-----8------------------------- G|------------------11----------- D|---9---9--------9----9--------- A|-7-------7----9--------9----10- E|------------------------------- E|-------------------------| B|---12-----------12-------| G|------12-----------12----| D|12-----------12----------| A|----------10-------------| E|-------------------------| Leve essa música D F#m C Em E|-14----------14--17----------17- B|-------------------------------- G|----14----14--------18----18---- D|-------12--------------16------- A|-------------------------------- E|-------------------------------- E|-12----------12--15---------15-| B|-------------------------------| G|----12----12--------16----16---| D|-------10--------------14------| A|-------------------------------| E|-------------------------------| E traz um sorriso [Segunda Parte] Em Com o coração na mão D/F# Eu sou o errado que deu certo G Mas quem que é errado no mundo dos espertos? Bm Bem melhor, bem melhor D C Faça da sua vida algo melhor do Em que já viu e ouviu sim ou não Em D/F# Eu não busco a perfeição em ninguém G Não quero que busque isso em mim D F#m Eles querem que você se sinta mal C Porque é assim que eles se sentem Em bem Em D/F# Mas, tudo que é bom me lembra você G Vem comigo até o fim Bm D C Em E|-10---------10--14----------14-- B|-------------------------------- G|----11---11--------14----14----- D|-------9--------------12-------- A|-------------------------------- E|-------------------------------- E|12----------12--15----------15-| B|-------------------------------| G|---12----12--------16----16----| D|------10--------------14-------| A|-------------------------------| E|-------------------------------| Em D/F# G Mudei minha história e foi melhor pra mim Bm D E|-10---------10--14----------14-| B|-------------------------------| G|----11---11--------14----14----| D|-------9--------------12-------| A|-------------------------------| E|-------------------------------| Nem sempre o que a vida me pede é C5 C5 C5 E5 aquilo que a vida me dá [Instrumental] 2x E|----------------------------| B|----------------------------| G|-----------------7----------| D|------------7h9----9-7------| A|-5/7-7-7-7-------------7----| E|----------------------------| E| B| G|(3x) D| A| E| E|----------------------------| B|-------------------------10-| G|-----------------7--9/11----| D|------------7h9-------------| A|-5/7-7-7-7------------------| E|----------------------------| [Solo] E|------------------------------ B|------------------------------ G|-9/11--11-11/12--12/14-----11- D|-x-x---x--x--x---x--x------x-- A|-7/9---9--9| /10--10/12-----9- E|------------------------------ E|- B|- G|1 D|x A|- E|- E|---------------------| B|---------------------| G|1-11/12-12-12/16-----| D|--x--x--x--x--x------| A|9--9 /10-10-10/14-----| E|---------------------| E|-------------------------------- B|-------------------------------- G|-12-12--12/14--14-14-14---14/12- D|-x--x---x--x---x--x--x----x--x-- A|-10-10--10/12--12-12-12---12/10- E|-------------------------------- E|--------------------| B|--------------------| G|12---12/11-11-11-11-| D|x----x--x--x--x--x--| A|10---10/9--9--9--9--| E|--------------------| E|------------------------------ B|------------------------------ G|-9/11--11-11/12--12/14-----11- D|-x-x---x--x--x---x--x------x-- A|-7/9---9--9| /10--10/12-----9- E|------------------------------ E|- B|- G|1 D|x A|- E|- E|---------------------| B|---------------------| G|1-11/12-12-12/16-----| D|--x--x--x--x--x------| A|9--9 /10-10-10/14-----| E|---------------------| E|------------------------------ B|------------------------------ G|-12-12--12/14---21/19--19/16-- D|-x--x---x--x----x--x---x--x--- A|-10-10--10/12---19/17--17/14-- E|------------------------------ E|----------------------| B|----------------------| G|16~~------------------| D|x---------------------| A|14~~------------------| E|----------------------| [Ponte] Em D/F# G E|------------------------------- B|-----8------------------------- G|------------------11----------- D|---9---9--------9----9--------- A|-7-------7----9--------9----10- E|------------------------------- E|-------------------------| B|---12-----------12-------| G|------12-----------12----| D|12-----------12----------| A|----------10-------------| E|-------------------------| Leve essa música Bm D C Em E|-10---------10--14----------14-- B|-------------------------------- G|----11---11--------14----14----- D|-------9--------------12-------- A|-------------------------------- E|-------------------------------- E|12----------12--15----------15-| B|-------------------------------| G|---12----12--------16----16----| D|------10--------------14-------| A|-------------------------------| E|-------------------------------| E traz um sorriso Em D/F# G E|------------------------------- B|-----8------------------------- G|------------------11----------- D|---9---9--------9----9--------- A|-7-------7----9--------9----10- E|------------------------------- E|-------------------------| B|---12-----------12-------| G|------12-----------12----| D|12-----------12----------| A|----------10-------------| E|-------------------------| Leve essa música D F#m C Em E|-14----------14--17----------17- B|-------------------------------- G|----14----14--------18----18---- D|-------12--------------16------- A|-------------------------------- E|-------------------------------- E|-12----------12--15---------15-| B|-------------------------------| G|----12----12--------16----16---| D|-------10--------------14------| A|-------------------------------| E|-------------------------------| E traz um sorriso [Final] Em E|---------7~~~~------------------ B|-------8~~~~-------------------- G|-----9~~~~---------------------- D|---9~~~~------------------------ A|-7~~~~-------------------------- E|--------------------------------
Composição: Guilermo PeladoColaboração e revisão: Renan LuizFrederico Faria