O Mundo Explodiu Lá Fora

Charlie Brown Jr.

Ab
234
431114
Ab5
134
466XXX
Bb5
134
X133XX
C5
134
X355XX
Cm
234
X35543
Eb5
134
X688XX
G5
134
355XXX
Tom: G

(riff 1 - 3x)
    Cm          Ab
E|----3----------------------| 
B|-------------4-------------| 
G|--5---5--------------------| 
D|-----------6---6-----------| 
A|-3-----3-------------------| 
E|---------4-------4---------| 



(riff 2 - 3x)
    Cm          Ab
E|------3333---------------------|
B|---------------4444------------|
G|-5555--------------------------|
D|-5555-----6666-----------------|
A|-3333-----6666-----------------|
E|----------4444-----------------|


(intro) C5 Ab5

C5                   Ab5
O mundo explodiu lá fora
C5                       Ab5
A vida não é mais como devia ser
C5               Ab5
O futuro é aqui agora(Parte Abafada)
C5                                
Você sorri mais uma noite mesmo 
   Ab5
sem saber

Cm Ab Pra onde vai esse mundo hostil (riff 1) (riff 2) C5 Ab5 Vivo pra acreditar que um dia a vida vai mudar C5 Mas realmente é muito difícil Ab5 Uma visão otimista do mundo em que vivo C5 Vendo varias pessoas no lixo Ab5 Voltamos a viver como bichos C5 Ab5 Voltamos ao início do fanatismo ao sacrifício (refrão) Eb5 Bb5 Síndrome da dúvida absoluta G5 Um bom guerreiro C5 Não foge da luta
Composição: Colaboração e revisão: Bruno Biãomarco vieiraMarcos Pacheco