O Nosso Blues

Charlie Brown Jr.

A
123
X02220
Ab
234
431114
B
234
X24442
Bb
234
X13331
Db
234
X46664
Gb
234
244322
Tom: G
  A Musik  começa com o baixo 
fazendo um riff assim:
Riff 1

G|--------------------------------
D|-0h2-0h2------------------------
A|---------4-2--------------------
E|-------------4-2---2--0-0---0-4-

G|-------| 
D|-------| 
A|-4-2-2-| 
E|2------| 

ai entra a guitarra fazendo um 
solinho com wah-wah q eh igual a do 
baixo....
Riff 2 guitarra com wah-wah

E|-----------|     |----------| 
B|-----------|     |----------| 
G|---2---4-2-|     |---2------| 
D|-4---4-----|  3x |-4---4----| 
A|-----------|     |-------2~-| 
E|-----------|     |----------| 



Riff 2 baixo

G|-------------------------------|
D|-------------------------------|
A|-5-5~----4-5-5~---4-5-5~-5-2-2-|
E|-------------------------------|

G| 
D| 
A| 
E| 


Letra: No começo repete as partes do
 riff 1 e 2
2 vezes

Riffs 1
Jogo baixo não me atinge
E na minha eu vou que vou
Me sinto muito bem
Quando vejo o pôr-do-sol-
Riffs 2
Vou te levar pra ver o mundo baby
Quero te mostar meu novo invento
Db
We got the moves
B
We got the ligths
Bb  A     Ab     Gb
We're gonna blow tha
 Ab       Ab
House down


Solo 1 tamo tirando Base do solo 1 Riffs 1 e 2 Riff 1 Vinha pela rua no meu passo sossegado Quando eu vi parar do lado um belo carro importado Eles fumavam fat joint e ouviam som bem alto Maloqueiro quando tem estilo rouba a cena de assalto Riff 2 Então desceram todos vieram me cumprimentar Me convidaram para uma festa que numa manssão ia rolar Riff 1 Eu fui com fé, eu fui na barca Porque sei que o mundo vai acabar Eu adoro uma mesa farta e várias garotas vão estar lá Db Viver bem é um vício que tenho B Não nego isso a ninguém Bb A Ab Eu faço o que eu quero fazer Gb Ab Depois durmo igual neném Solo 2 Base Riffs 1 e 2 Ab Ab Fort fire fort fire Riff 1 essa parte canta 2 vezes You go dancing to this feeling Keep on running into the floor You're walking on the rain But you are waiting for the sun Riff 2 You got the keep moving If you really wanna flip the table Db We got thu moves B We got the ligths Bb A Ab We're gonna blow the Gb Ab House down Solo no baixo volta a fazer os riffs 1 e 2 e termina a musik com C|- B - A#- A - F# - G#
Composição: Colaboração e revisão: Túlio RibasÁtila Nasciemento