Onde Está o Mundo Bom?

Charlie Brown Jr.

B5
134
X244XX
D5
134
X577XX
E5
12
022XXX
G5
134
355XXX
Tom: G

       B5           D5            
E|--------------------------------
B|--------------------------------
G|--------------------------------
D|--9--9--9-9-9--12--12--12-12-12-
A|--9--9--9-9-9--12--12--12-12-12-
E|--7--7--7-7-7--10--10--10-10-10-
      G5           E5
E|---------------------------- 
B|---------------------------- 
G|---------------------------- 
D|-5--5--5-5-5--2--2--2-2-2--- 
A|-5--5--5-5-5--2--2--2-2-2--- 
E|-3--3--3-3-3--0--0--0-0-0--- 


Riff da Intro:


E|--0-0-0--0--0------------------
B|--7-7-10-10-10-7-7-7s12s10~----
G|-------------------------------
D|----------------------------5--
A|----------------------------5--
E|----------------------------3--

E|--------------------------------- 
B|--------------------------------- 
G|--------------------------------- 
D|5--5-5-5--2--2--2-2-2------------ 
A|5--5-5-5--2--2--2-2-2------------ 
E|3--3-3-3--0--0--0-0-0------------ 


B5         D5            G5
 A miséria oprime à todos nós
              E5                 B5
 De quem é a culpa eles nunca falam
    D5           G5         E5
 O caos virou normal urna e na TV
B5          D5            G5    
 Já nem me lembro quantos 
     E5
incidentes tristes passei
B5                D5         G5 
 Quantos sonhos o mundo já levou
     E5
 de você?

Refrão:
B5            D5       
  Onde está o mundo bom que 
G5           E5
prometeram a você?
B5            D5         G5      
  Será que a vida é como deveria 
E5  (Riff 2)
ser?
B5 D5 Onde está o mundo bom que G5 E5 prometeram a você? B5 D5 G5 Será que a vida é como deveria E5 ser? Riff 2: E|--10-9--- B|--8--7--- G|--------- D|--------- A|--------- E|--------- (Intro) B5 D5 G5 E5 Somos forçados a condutas e clichês B5 D5 G5 Que a sociedade aprove e possa E5 entender B5 D5 G5 Eles te controlam mas não podem E5 ajudar você B5 D5 Quando eu precisar quem é que G5 E5 vai olhar por mim? Refrão: B5 D5 Onde está o mundo bom que G5 E5 prometeram a você? B5 D5 G5 Será que a vida é como deveria E5 (Riff 2) ser? B5 D5 Onde está o mundo bom que G5 E5 prometeram a você? B5 D5 G5 Será que a vida é como deveria E5 ser? (Intro) B5 D5 Maybe one day G5 E5 I'm gonna live in L.A. B5 D5 Maybe one da__y G5 E5 I'm gonna live in L.A. B5 D5 Wanna be no superstar G5 E5 But I wanna drive all the nice cars
Composição: Colaboração e revisão: Alexandre FerreirawanderleiaguiarDaniel LinharesMarcos Pacheco