Peso da Batida do Errado Que Deu Certo

Charlie Brown Jr.

A5
12
X022XX
B5
134
X244XX
D5
134
X577XX
F#5
134
244XXX
Tom: G
Algumas notas em certos pontos da 
música repetem... então cuidem e 
tirem pq eh tri facil...

intro: ( B5  A5  F#5  D5 )


E|----7---------------5-----------
A|----9---------------7-----------
D|----9---------------7-----------
G|--------------------------------
B|--------------------------------
e|--------------------------------

E|------2---------------------------
A|------4----------------5--5-------
D|------4----------------7--7-------
G|-----------------------7--7-------
B|----------------------------------
e|----------------------------------



B5               A5         F#5     
    D5 (Abafando)
Aquilo que não pode a gente faz e 
faz direito
(É desse jeito...)
Aquilo que não pode a gente faz 
muito bem feito
(Daquele jeito...)
Lutei me libertei venci ganhei 
respeito
Memo co zoião e com todo preconceito
Veneno impregnou no estilo 
internacional
Vagabundo que pixava agora tudo 
passa mal

B5         A5       F#5          
Peso da batida do errado que deu 
  D5
certo
Esse é o peso da batida do errado 
que deu certo

                 B5
Do jeito que eu vim
D5 Do jeito que eu vou F#5 É do jeito que eu vivo A5 É do jeito que eu sou Riff (Base): ( B5 F#5 A5 D5 ) 3x ( B5 F#5 A5) B5 A5 F#5 D5 One,two,three presta atenção agora você vai me ouvir Quem tem coragem não se esconde,se aceita como é O futuro é um labirinto pra quem não sabe o que quer B5 A5 F#5 D5 (Abafando) Faço o que faço na medida do impossível A vida de um maluco tambem pode ser incrível A vida é muito louca a gente tem que andar na linha Mantendo a humildade viver o dia-a-dia B5 A5 F#5 Peso da batida do errado que deu D5 certo Esse é o peso da batida do errado que deu certo B5 Do jeito que eu vim D5 Do jeito que eu vou F#5 É do jeito que eu vivo A5 É do jeito que eu sou ( B5 F#5 A5 D5 ) Peso da batida do errado que deu certo Esse é o peso da batida do errado que deu certo A batida agora é essa. Solo(Base): ( B5 F#5 A5 D5 )
Composição: Colaboração e revisão: Paulo Pietro