Que Espécie de Vermes São Vocês?

Charlie Brown Jr.

Tom: G
Introdução e base da música:


e|--------------------------------
B|--------------------------------
G|---6-6-6-6--9-8-----------------
D|---6-6-6-6--9-8---7-7-7-7--6-6--
A|---4-4-4-4--7-6---7-7-7-7--6-6--
E|---------------------5-5-5-5--4-

e|-----------------  
B|-----------------  
G|-----------------  
D|-----------------  
A|-----------------  
E|4----------------  


Cuspiram regra na minha cara e eu 
vomitei etiqueta
Sociedade de consumo e desigualdade 
social
Chega de fingir sem saber pra onde 
ir
Tentei acordar desse sonho pessoal

Refrão:

e|------------------------------- B|------------------------------- G|-------------4----------------- D|-------------4-------------4--- A|----------0--2-----2-0-----4--- E|---2-4------------------4--2--- e|------------------ B|------------------ G|---------6-------- D|---------6-------- A|------2--4-------- E|4-5--------------- Que espécie de vermes são vocês? 4x Base: O que adianta ter dinheiro e ser um puta maluco Você taca sua riqueza nesse jogo de ilusão Trabalhe para ganhar, viva para gastar Mas saiba que um dia isso tudo vai acabar Refrão Base A paranóia é muito grande, não me deixa mais rico O paraíso foi pro inferno, e... É isso ai, ouçam a música que não vai ter trabalho. Valeu
Composição: Markon LobotomiaColaboração e revisão: Ícaro Nascimento