Quinta-Feira

Charlie Brown Jr.

C
123
X32010
D
123
XX0232
Em7
123
022030
F
234
133211
G
123
320003
Tom: G
[Intro] G  C  F  C
        G  C  F  C


Riff

E|--------------------------------
B|--------------------------------
G|--------------------------------
D|--------5-3-2--------2---3-3/5--
A|--------------3-3--3---3--------
E|-3-3--3-------------------------



E|--------------------------------
B|--------------------------------
G|--------------------------------
D|-------3-2-0--------2---3-3/5---
A|-------------3-3--3---3---------
E|-11--1--------------------------



E|--------------------------------
B|------------------------0-------
G|-------0--------------0---0---0-
D|-----0---0---0------2-------2---
A|---2-------2------3-------------
E|-3------------------------------



E|--------------------------------
B|-------0------------------------
G|-----0---0---0------------------
D|---3-------3--------------------
A|---------------3-3-3-3-5--------
E|-1------------------------------


[Primeira Parte]

          Em7              
Ainda me lembro bem daquela 
              D
quinta-feira
         Em7
Cinco malandro em volta da fogueira
                D
Fogueira, yeah!

         Em7
Ouvi o grito de dor de um homem que 
falava
                               D
A verdade mas ninguém se importava
             Em7
Botando pra fora tudo que sentiu na 
pele
                                 D
Mas ninguém lhe dava ouvidos não

         Em7
Ouvi o grito de dor de um homem que 
falava
                               D
A verdade mas ninguém se importava
             Em7
Botando pra fora tudo que sentiu na 
pele
                                 D
Mas ninguém lhe dava ouvidos não

[Pré-Refrão]

          G                   
Deixou a marca da fogueira que 
      C
acendeu pra se
                    F   C
Livrar do frio que mata
           G
Miséria impune, notável
    C              F          C
Sincera não acaba nunca, yeah!

          G                   
Deixou a marca da fogueira que 
      C
acendeu pra se
                    F   C
Livrar do frio que mata
           G
Miséria impune, notável
    C              F          C
Sincera não acaba nunca, yeah!

[Refrão] G C Parecia inofensiva mas te dominou F C Te dominou, te dominou, dominou G C Parecia inofensiva mas te dominou F C Te dominou, te dominou, dominou G C Parecia inofensiva mas te dominou F C Te dominou, te dominou, dominou G C Parecia inofensiva mas te dominou F C Te dominou, te dominou, dominou Oh! ( G C F C ) ( G C F C ) ( G C F C ) Riff [Segunda Parte] Em7 O difícil é desviar de quem tá sempre querendo D Ela mantém a porta aberta ela te faz de instrumento Em7 Vai te dominar, se já não dominou, D yeah! Em7 Ouvi o grito de dor de um homem que falava D A verdade mas ninguém se importava Em7 Botando pra fora tudo que sentiu na pele D Mas ninguém lhe dava ouvidos não [Pré-Refrão] G Deixou a marca da fogueira que C acendeu pra se F C Livrar do frio que mata G Miséria impune, notável C F C Sincera não acaba nunca, yeah! G Deixou a marca da fogueira que C acendeu pra se F C Livrar do frio que mata G Miséria impune, notável C F C Sincera não acaba nunca, yeah! [Refrão] G C Parecia inofensiva mas te dominou F C Te dominou, te dominou, dominou G C Parecia inofensiva mas te dominou F C Te dominou, te dominou, dominou G C Parecia inofensiva mas te dominou F C Te dominou, te dominou, dominou G C Parecia inofensiva mas te dominou F C Te dominou, te dominou, dominou Oh! ( G C F C ) ( G C F C ) ( G C F C ) [Solo] G C F C G C F C [Refrão] G C Parecia inofensiva mas te dominou F C Te dominou, te dominou, dominou G C Parecia inofensiva mas te dominou F C Te dominou, te dominou, dominou G C Parecia inofensiva mas te dominou F C Te dominou, te dominou, dominou G C Parecia inofensiva mas te dominou F C Te dominou, te dominou, dominou
Composição: Thiago / Champignon / Chorão / Marcão / PeladoColaboração e revisão: Lucas KappaunLenon AssuncaoBreno Bruno Reise mais 4