A5
134
577XXX
B5
134
799XXX
D5
134
X577XX
E5
134
X799XX
F5
134
X81010XX
Tom: G
[Introdução]

(Parte 1)


   P.M . . . . . . . . . . . . . .
E|-------------------------------
B|-------------------------------
G|-------------------------------
D|-------------------------------
A|---------5-5---5-7-7---5-8-7-5-
E|-7-7-5-7-----7-------7---------

E|----------------------| 
B|----------------------| 
G|----------------------| 
D|----------------------| 
A|7---------------------| 
E|----------------------| 



(Parte 2 – Guitarra Base)


   B5      D5      E5    ( F5 E5  
E|--------------------------------
B|--------------------------------
G|---------7-7-7-7-9-9-9-9-10--9--
D|-9-9-9-9-7-7-7-7-9-9-9-9-10--9--
A|-9-9-9-9-5-5-5-5-7-7-7-7--8--7--
E|-7-7-7-7------------------------
  D5  E5 )
E|----------|       
B|----------|       
G|-7---9----|  (3x) 
D|-7---9----|       
A|-5---7----|       
E|----------|       


                     H.N . . . . .
E|-------------------------------
B|-------------------------------
G|---------7-7-7-7-9-x-x-x-x-x-x-
D|-9-9-9-9-7-7-7-7-9-x-x-x-x-x-x-
A|-9-9-9-9-5-5-5-5-7-x-x-x-x-x-x-
E|-7-7-7-7-----------------------

E|-----------|   
B|-----------|   
G|x----------|   
D|x----------|   
A|x----------|   
E|-----------|   


(Parte 2 - Guitarra Riff)


E|-------------------------------
B|-------------------------------
G|-16-16-16-16-14-14-14-14-13-13-
D|-------------------------------
A|-14-14-14-14-12-12-12-12-11-11-
E|-------------------------------

E|----------------------| 
B|----------------------| 
G|13-13-12-12-11-11-----| 
D|----------------------| 
A|11-11-10-10--9--9-----| 
E|----------------------| 



E|-------------------------------
B|-------------------------------
G|-16-16-16-16-19-19-19-19-13-13-
D|-------------------------------
A|-14-14-14-14-17-17-17-17-11-11-
E|-------------------------------

E|----------------------| 
B|----------------------| 
G|13-13-12-12-11-11-----| 
D|----------------------| 
A|11-11-10-10--9--9-----| 
E|----------------------| 



E|-------------------------------
B|-------------------------------
G|-16-16-16-16-14-14-14-14-13-13-
D|-------------------------------
A|-14-14-14-14-12-12-12-12-11-11-
E|-------------------------------

E|----------------------| 
B|----------------------| 
G|13-13-12-12-11-11-----| 
D|----------------------| 
A|11-11-10-10--9--9-----| 
E|----------------------| 


                              H.N 
E|--------------------------------
B|--------------------------------
G|-16-16-16-16-19-19-19-19-13-x-x-
D|----------------------------x-x-
A|-14-14-14-14-17-17-17-17-11-x-x-
E|--------------------------------
  . . . . .
E|---------------------| 
B|---------------------| 
G|x-x-x-x-x------------| 
D|x-x-x-x-x------------| 
A|x-x-x-x-x------------| 
E|---------------------| 




[Primeira Parte]


  P.M. . . . . . . . . . . . . . .
E|-------------------------------
B|-------------------------------
G|-------------------------------
D|-------------------------------
A|---------5-5---5-7-7---5-8-7-5-
E|-7-7-5-7-----7-------7---------
  P.M. . .     . .       .       

E|----------------------|       
B|----------------------|       
G|----------------------|  (3x) 
D|----------------------|       
A|7---------------------|       
E|----------------------|       
                              


E|--------------------------------
B|--------------------------------
G|--------------------------------
D|--------------------------------
A|---------5-5---5-7-7-7---5--5---
E|-7-7-5-7-----7---------0-3--3---

E|---------------------| 
B|---------------------| 
G|---------------------| 
D|---------------------| 
A|4--------------------| 
E|2--------------------| 


Desempregado e falido
Andava pela rua largado e fudido
Achou na rua uma carteira
Recheada de dólar
Acabou-se a miséria
Foi-se o tempo da esmola


[Segunda Parte]

(Guitarra Base)


   B5      D5      E5    ( F5 E5  
E|--------------------------------
B|--------------------------------
G|---------7-7-7-7-9-9-9-9-10--9--
D|-9-9-9-9-7-7-7-7-9-9-9-9-10--9--
A|-9-9-9-9-5-5-5-5-7-7-7-7--8--7--
E|-7-7-7-7------------------------
  D5  E5 )
E|----------|       
B|----------|       
G|-7---9----|  (4x) 
D|-7---9----|       
A|-5---7----|       
E|----------|       


(Guitarra Riff - 2x)


E|-------------------------------
B|-------------------------------
G|-16-16-16-16-14-14-14-14-13-13-
D|-------------------------------
A|-14-14-14-14-12-12-12-12-11-11-
E|-------------------------------

E|----------------------| 
B|----------------------| 
G|13-13-12-12-11-11-----| 
D|----------------------| 
A|11-11-10-10--9--9-----| 
E|----------------------| 



E|-------------------------------
B|-------------------------------
G|-16-16-16-16-19-19-19-19-13-13-
D|-------------------------------
A|-14-14-14-14-17-17-17-17-11-11-
E|-------------------------------

E|----------------------| 
B|----------------------| 
G|13-13-12-12-11-11-----| 
D|----------------------| 
A|11-11-10-10--9--9-----| 
E|----------------------| 


Rubão, um rapaz
Vive largado
Desempregado e falido
Achou na rua uma carteira
Recheada de dólar
Acabou-se a miséria
Foi-se o tempo da esmola


[Primeiro Refrão]


       P.M     .      .  . .
E|--------------------------------
B|--------------------------------
G|--------7--7---9--9---10-9-7----
D|-9--9---7--7---9--9---10-9-7----
A|-9--9---5--5-x-7--7-x--8-7-5----
E|-7--7-x-------------------------

E|----------|       
B|----------|       
G|----------|  (4x) 
D|----------|       
A|----------|       
E|----------|       


Rubão, Rubão
Pagou pra ver
Tcharroladrão
Qual é o sentido da vida?
Rubão, Rubão Pagou pra ver Tcharroladrão Desiludido da vida [Ponte] B5 A5 B5 E|-------------------------------- B|-------------------------------- G|-------------------------------- D|-9-9----9-9----9-9--7--9-9------ A|-9-9----9-9----9-9--7--9-9------ E|-7-7----7-7----7-7--5--7-7------ B5 A5 B5 A5 B5 E|-------------------------------- B|-------------------------------- G|-------------------------------- D|-9-9--7--9-9----9-9--7--9-9----- A|-9-9--7--9-9----9-9--7--9-9----- E|-7-7--5--7-7----7-7--5--7-7----- Pretty bitch for fun Pretty bitch for fun Pretty bitch for fun For fun, for fun Pretty bitch for fun Pretty bitch for fun Pretty bitch for fun For fun, for fun [Terceira Parte] P.M. . . . . . . . . . . . . . . E|------------------------------- B|------------------------------- G|------------------------------- D|------------------------------- A|---------5-5---5-7-7---5-8-7-5- E|-7-7-5-7-----7-------7--------- P.M. . . . . . E|----------------------| B|----------------------| G|----------------------| (3x) D|----------------------| A|7---------------------| E|----------------------| E|-------------------------------- B|-------------------------------- G|-------------------------------- D|-------------------------------- A|---------5-5---5-7-7-7---5--5--- E|-7-7-5-7-----7---------0-3--3--- E|---------------------| B|---------------------| G|---------------------| D|---------------------| A|4--------------------| E|2--------------------| Catou várias mulheres Convocou os amigos Comprou todo o sistema Mandou matar os inimigos Catou várias mulheres Convocou os amigos Comprou todo o sistema Mandou matar os inimigos [Segundo Refrão] B5 D5 E5 ( F5 E5 E|-------------------------------- B|-------------------------------- G|---------7-7-7-7-9-9-9-9-10--9-- D|-9-9-9-9-7-7-7-7-9-9-9-9-10--9-- A|-9-9-9-9-5-5-5-5-7-7-7-7--8--7-- E|-7-7-7-7------------------------ D5 E5 ) E|----------| B|----------| G|-7---9----| (4x) D|-7---9----| A|-5---7----| E|----------| (Guitarra Riff - 2x) E|------------------------------- B|------------------------------- G|-16-16-16-16-14-14-14-14-13-13- D|------------------------------- A|-14-14-14-14-12-12-12-12-11-11- E|------------------------------- E|----------------------| B|----------------------| G|13-13-12-12-11-11-----| D|----------------------| A|11-11-10-10--9--9-----| E|----------------------| E|------------------------------- B|------------------------------- G|-16-16-16-16-19-19-19-19-13-13- D|------------------------------- A|-14-14-14-14-17-17-17-17-11-11- E|------------------------------- E|----------------------| B|----------------------| G|13-13-12-12-11-11-----| D|----------------------| A|11-11-10-10--9--9-----| E|----------------------| Rubão, Rubão Pagou pra ver Tcharroladrão Desiludido da vida Rubão, Rubão Pagou pra ver Tcharroladrão Qual é o sentido da vida? [Passagem] (Guitarra Base) P.M . . . . E|-------------------------------- B|-------------------------------- G|---------7-7-7---9-9-9---10-9-7- D|-9-9-9---7-7-7---9-9-9---10-9-7- A|-9-9-9---5-5-5-x-7-7-7-x--8-7-5- E|-7-7-7-x------------------------ E|----------| B|----------| G|----------| (4x) D|----------| A|----------| E|----------| (Guitarra Riff - 2x) E|------------------------------- B|------------------------------- G|-16-16-16-16-14-14-14-14-13-13- D|------------------------------- A|-14-14-14-14-12-12-12-12-11-11- E|------------------------------- E|----------------------| B|----------------------| G|13-13-12-12-11-11-----| D|----------------------| A|11-11-10-10--9--9-----| E|----------------------| E|------------------------------- B|------------------------------- G|-16-16-16-16-19-19-19-19-13-13- D|------------------------------- A|-14-14-14-14-17-17-17-17-11-11- E|------------------------------- E|----------------------| B|----------------------| G|13-13-12-12-11-11-----| D|----------------------| A|11-11-10-10--9--9-----| E|----------------------| [Ponte] B5 A5 B5 E|-------------------------------- B|-------------------------------- G|-------------------------------- D|-9-9----9-9----9-9--7--9-9------ A|-9-9----9-9----9-9--7--9-9------ E|-7-7----7-7----7-7--5--7-7------ B5 A5 B5 A5 B5 E|-------------------------------- B|-------------------------------- G|-------------------------------- D|-9-9--7--9-9----9-9--7--9-9----- A|-9-9--7--9-9----9-9--7--9-9----- E|-7-7--5--7-7----7-7--5--7-7----- Pretty bitch for fun Pretty bitch for fun Pretty bitch for fun For fun, for fun Pretty bitch for fun Pretty bitch for fun Pretty bitch for fun For fun, for fun [Interlúdio] P.M. . . . . . . . . . . . . . . E|------------------------------- B|------------------------------- G|------------------------------- D|------------------------------- A|---------5-5---5-7-7---5-8-7-5- E|-7-7-5-7-----7-------7--------- E|----------------------| B|----------------------| G|----------------------| (3x) D|----------------------| A|7---------------------| E|----------------------| P.M. . . . . . . . . . . E|------------------------------- B|------------------------------- G|------------------------------- D|------------------------------- A|---------5-5---5-7-7-7---5--5-- E|-7-7-5-7-----7---------0-3--3-- E|----------------------| B|----------------------| G|----------------------| D|----------------------| A|4--9------------------| E|2--7------------------| Charlie Brown, Isso é Charlie Brown, mané! [Terceiro Refrão] (Guitarra Base) P.M . . E|-------------------------------- B|-------------------------------- G|---------7-7-7---9-9-9---10-9-7- D|-9-9-9---7-7-7---9-9-9---10-9-7- A|-9-9-9---5-5-5-x-7-7-7-x--8-7-5- E|-7-7-7-x------------------------ E|----------| B|----------| G|----------| (4x) D|----------| A|----------| E|----------| (Guitarra Riff - 2x) E|------------------------------- B|------------------------------- G|-16-16-16-16-14-14-14-14-13-13- D|------------------------------- A|-14-14-14-14-12-12-12-12-11-11- E|------------------------------- E|----------------------| B|----------------------| G|13-13-12-12-11-11-----| D|----------------------| A|11-11-10-10--9--9-----| E|----------------------| E|------------------------------- B|------------------------------- G|-16-16-16-16-19-19-19-19-13-13- D|------------------------------- A|-14-14-14-14-17-17-17-17-11-11- E|------------------------------- E|----------------------| B|----------------------| G|13-13-12-12-11-11-----| D|----------------------| A|11-11-10-10--9--9-----| E|----------------------| Rubão, Rubão Pagou pra ver Tcharrollladrão Qual é o sentido da vida? Rubão, Rubão Pagou pra ver Tcharroladrão Desiludido da vida [Final] B5 A5 B5 E|------------------------------ B|------------------------------ G|------------------------------ D|-9-9----9-9----9-9--7--9-9---- A|-9-9----9-9----9-9--7--9-9---- E|-7-7----7-7----7-7--5--7-7---- E|------------| B|15\---------| G|14\---------| D|12\---------| A|14\---------| E|------------| Pretty bitch for fun Pretty bitch for fun Pretty bitch for fun For fun, for fun
Composição: Chorão / MarcãoColaboração e revisão: Vinícius DiasThaigo Silva
Videoaula Rubão (aula de guitarra)