E
123
022100
Eb
234
X65343
F
234
133211
Gb
234
244322
Tom: G
 Riff 1 (c/ phaser)


eb|-9--9---9-12-12/14-| 
Bb|-10-10--9-12-12/14-| 
Gb|-9--9---9-12-12/14-| 
Db|-11-11-------------| 
Ab|-9--9--------------| 
Eb|-------------------| 




(c/wha)

eb|-----------------------------
Bb|-----------------------------
Gb|-12\-7-10-7----7-----[4x]----
Db|------------10---7---------12
Ab|-------------------9---------
Eb|-----------------------------

e|-------------| 
B|-------------| 
G|12---11----10| 
D|---11---10---| 
A|-------------| 
E|-------------| 



c/wha)

eb|-----------------------------
Bb|-----------------------------
Gb|-12\-7-10-7----7-------------
Db|------------10---7---7---9---
Ab|-------------------9---9---9-
Eb|-----------------------------

e|-------------| 
B|-------------| 
G|-----9-------| 
D|11-----------| 
A|---9---------| 
E|-------------| 



eb|-------------| 
Bb|-------------| 
Gb|-------------| 
Db|-4-3-2-4/5-2-| 
Ab|-4-3-2-4/5-2-| 
Eb|-2-1-0-2/3-0-| 



solo

eb|-------------------------------
Bb|-------------------------------
Gb|-16br---14----------14----16br-
Db|-----16----16p14h16------------
Ab|-------------------------------
Eb|-------------------------------

e|--------------------------| 
B|--------------------------| 
G|---14---------------------| 
D|16----16p14h16-14---------| 
A|------------------16-15-14| 
E|--------------------------| 




eb|---------------------------
Bb|---------------------------
Gb|-16br----16b---------14----
Db|------16----16p14h16-------
Ab|---------------------------
Eb|---------------------------

e|-----------------------| 
B|-----------------------| 
G|16br----14-------16brbr| 
D|-----16----16p14-------| 
A|-----------------------| 
E|-----------------------| 



Ainda tp pegando o resto do solo XD

-=[Tradução]=- 

 x = Não toca nada
~ = Arraste (Da corda 4 pra 8) ---- = Distância Maior em Relação -|as outras Riff 1 Eu sou o Sheik tenho mais de mil mulheres no meu harém minha barraca ta armada e não tem pra ninguém com meu petróleo tua máquina funciona bem vou te comprar pro meu harém Porque eu só moro em cobertura, só ando em limusine um milhão no porta mala cinco mina de biquini eu sou o Sheik, Sheik, Sheik F - E - Eb vou te comprar pro meu harém Riff 1 Poligamia casei com tua irmã com tua prima e tua tia! Você no meu lugar não vai dizer que não faria ? Eb Tudo traz a lembrança da lenda da Riff 1 fenda fica induzindo ele rumar pra lá estúpido ele fica, assim ela é linda Ela vem, ela abala, ela é má Xexecar o que ela tem pra me entreter F - E - Eb é mais ou menos parecido com a mulher do Canadá F - E - Eb - Gb Sheik, Sheik F - E - Eb - Gb Sheik, Sheik, Sheik! F - E - Eb - Gb Sheik, Sheik F - E - Eb Sheik, Sheik, Sheik!
Composição: ChorãoColaboração e revisão: daniel gratãothiago sousa