Sou Quem Eu Sou

Charlie Brown Jr.

Tom: G

Introdução

E|-------------------------------
B|-------0-------0-----------3---
G|-------------------0-----------
D|-------------------------------
A|-----------------------3-------
E|---0-------0-------------------

E|------------------------------------ 
B|----3-------0-------0-----------3--- 
G|------------------------0----------- 
D|------------------------------------ 
A|3---------------------------3------- 
E|--------0-------0------------------- 



RIFF 1

E|---------------------------   
B|--------------5------------   
G|--------------5(6 VEZES)---   
D|---2----------3------------(4 
A|---2(5 VEZES)--------------   
E|---0-----------------------   

E|       
B|       
G|       
D|VEZES) 
A|       
E|       


RIFF 2
 (P. M.)    (P. M.)

E|---------------------------   
B|---------------------------   
G|--------------5------------   
D|---2----------5(8 VEZES)---(4 
A|---2(8 VEZES)-3------------   
E|---0-----------------------   

E|       
B|       
G|       
D|VEZES) 
A|       
E|       



RIFF 3

E|---------------------------   
B|---------------------------   
G|--------------5------------   
D|---2----------5(8 VEZES)---(4 
A|---2(8 VEZES)-3------------   
E|---0-----------------------   

E|       
B|       
G|       
D|VEZES) 
A|       
E|       



RIFF 4

E|--------------------------------
B|--------------------------------
G|---7-----------5-----------7----
D|---7(13 VEZES)-5(13 VEZES)-7(13 
A|---5-----------3-----------5----
E|--------------------------------

E|--------- 
B|--------- 
G|--------- 
D|VEZES)--- 
A|--------- 
E|--------- 



RIFF 5

E|--------------------------------
B|--------------------------------
G|--------------------------------
D|--------------------------------
A|---2h3---3---3h5---5---5h7---7--
E|--------------------------------

E|----------------------- 
B|----------------------- 
G|----------------------- 
D|----------------------- 
A|-7h9---9---9h10---10--- 
E|----------------------- 


RIFF 6 E|------------------------------- B|------------------------------- G|---5----------4---------------- D|---5(6 VEZES)-4---2------------ A|---3----------2---2(6 VEZES)--- E|------------------0------------ E| B| G| D|(8 VEZES) A| E| RIFF 7 (TEM UM BARULHO ACOMPANHANDO ISSO {DEPOIS DO REFRÃO RIFF 6} EU NÃO DESCOBRI AINDA) E|--------------------------- B|--------------------------- G|--------------5------------ D|---2----------5(5 VEZES)---(4 A|---2(4 VEZES)-3------------ E|---0----------------------- E| B| G| D|VEZES) A| E| RIFF 8 E|------------------------------ B|---7----------5---4-------7--- G|---7(3 VEZES)-5---4---5---7(3 D|---5----------3---2---5---5--- A|----------------------3------- E|------------------------------ E|------------------------------------------------------------ B|-------5---4---5---7----------5---4------------------------- G|VEZES)-5---4---5---7(3 VEZES)-5---4---5--------------------- D|-------3---2---3---5----------3---2---5--------------------- A|--------------------------------------3---7-7-5-5----------- E|--------------------------------------------------5-5-6-6--- SOLO (MAIS OU MENOS ASSIM) E|------------------------------- B|------------------------------- G|------------------------------- D|-----------2-------2---------4- A|---2-2-5-2---5-3-2-2-2-2-5-2--- E|-------------------0----------- E|---------------------------------- B|---------------------------------- G|---------------------------------- D|5h7-2-2-2-5-2-5h7-5-2-9-7-5-2-5h7- A|---------------------------------- E|---------------------------------- ---------- ---------- ---------- 5---5-----(2 VEZES) --7---5--- ---------- O DECORRER DA MÚSICA É ASSIM: INTRO RIFF 1 RIFF 2 RIFF 3 RIFF 4 RIFF 5 RIFF 6 RIFF 7 RIFF 2 RIFF 3 RIFF 4 RIFF 5 RIFF 6 RIFF 7 RIFF 8 SOLO RIFF 7 TERMINA COM MI MENOR
Composição: Colaboração e revisão: Dalhanges Silveiraadonis jesienheldinho