Tâmo aí Na Atividade

Charlie Brown Jr.

Bbm
234
X13321
Ebm
1234
XX1342
F5
134
133XXX
Tom: G
[Intro]

Eles querem que você se sinta mal
Pois assim eles se sentem bem

Riff 1


E|--------------------------------
B|--------------------------------
G|--------------------------------
D|------8----11-8----8~-----------
A|-8-11---11------11--------------
E|--------------------------------



E|--------------------------------
B|--------------------------------
G|--------------------------------
D|------8----11-8-----------------
A|-8-11---11------11--------------
E|--------------------9h11~-\9-6--

E|----------| 
B|----------| 
G|----------| 
D|11h13-8~--| 
A|----------| 
E|----------| 


(Guitarra com delay)


   Bbm
E|-6~-----------------------------
B|-6~-----------------------------
G|-6~-----------------------------
D|--------------------------------
A|--------------------------------
E|--------------------------------


[Primeira Parte]

Bbm                     Ebm
    Eu nasci pobre mas não nasci 
otário
Bbm                       Ebm
    Eu é que não caio no conto do 
vigário
    Bbm                       Ebm
Eu tenho fé em Deus pra resolver 
qualquer parada
  Bbm                  Ebm
Chega com respeito na minha quebrada

[Segunda Parte]

(Guitarra com delay)


   Bbm
E|-6~-----------------------------
B|-6~-----------------------------
G|-6~-----------------------------
D|--------------------------------
A|--------------------------------
E|--------------------------------


Riff 2


E|--------------------------------
B|--------------------------------
G|--------------------------------
D|--------------------------------
A|-1-1-1-4-4-1---4/6--4-1-----1~--
E|-------------4-----------4------


Bbm
    Eu não vim pra me explicar

Eu vim pra confundir

Não vim pra me explicar

[Terceira Parte]

     Bbm                       Ebm
Vem cá seu cu-de-burro vou te dar um
 esculacho
        Bbm                        
Sua atitude é de playboy porque sua
  Ebm
 vida é muito fácil
    Bbm                          
Vencer na vida, no mundão é só pra 
Ebm
quem tem coragem
    Bbm                       Ebm
Um dia eu levo ela pra ver o pôr do 
sol da laje

[Quarta Parte]

Riff 3


E|--------------------------16----
B|-16b17-16----14-16-----14-------
G|----------15-------15~----------
D|--------------------------------
A|--------------------------------
E|--------------------------------

E|----------| 
B|----------| 
G|--~-------| 
D|----------| 
A|----------| 
E|----------| 



E|--------------------------------
B|-16b17-16----14-16-----14-16----
G|----------15-------15~----------
D|--------------------------------
A|--------------------------------
E|--------------------------------

E|----------| 
B|----------| 
G|--~-------| 
D|----------| 
A|----------| 
E|----------| 


Bbm  Ebm             Bbm
    Tamo aí na atividade
 Ebm             Bbm
Tamo aí na atividade
 Ebm             Bbm  Ebm
Tamo aí na atividade

[Quinta Parte]

    Bbm
Me basta o que venha do surf
    F5
Me basta o que venha do skate
    Bbm
Me basta o que venha do coração
    F5
Me basta o que venha da mente

Bbm Me basta o que venha do surf F5 Me basta o que venha do skate Bbm Me basta o que venha do coração F5 Me basta o que venha da mente Bbm F5 Eles são gente mas não são gente como a gente Bbm F5 Eles são gente mas não são gente como a gente [Sexta Parte] Bbm Meu estilo de vida Ebm Liberta minha mente Bbm Completamente louco Ebm Mas um louco consciente [Quarta Parte] Riff 3 E|--------------------------16---- B|-16b17-16----14-16-----14------- G|----------15-------15~---------- D|-------------------------------- A|-------------------------------- E|-------------------------------- E|----------| B|----------| G|--~-------| D|----------| A|----------| E|----------| E|-------------------------------- B|-16b17-16----14-16-----14-16---- G|----------15-------15~---------- D|-------------------------------- A|-------------------------------- E|-------------------------------- E|----------| B|----------| G|--~-------| D|----------| A|----------| E|----------| Bbm Ebm Bbm Tamo aí na atividade Ebm Bbm Tamo aí na atividade Ebm Bbm Ebm Tamo aí na atividade [Sétima Parte] Bbm Agora sei O quanto é precioso o nosso tempo A gente tem que dar valor Certas coisas não tem preço O fato é que a gente tem que se preservar Riff 4 E|-----4-----4-----3-----3/13----- B|---2-----2-----2-----2---------- G|-3-----3-----3-----3------------ D|-------------------------------- A|-------------------------------- E|-------------------------------- Viver intensamente com a cabeça no lugar [Oitava Parte] Bbm Ebm Não, eu não me sinto mal Bbm Ebm Eu sobrevivo a todo lixo, todo ódio, com amor Bbm Ebm Eu sou o valor das coisas simples Bbm Ebm Eu dou valor pras coisas simples Bbm Ebm Não, eu não me sinto mal Bbm Eu quero é mais que eles queimem na Ebm fogueira das vaidades Bbm Ebm Eu dou valor pras coisas simples Bbm Ebm Eu sou valor das coisas simples Eu [Nona Parte] Bbm Mas me diz então O que da vida posso ter? Como tudo deve ser? Com as balizas do nosso sistema Mas me diz então O que da vida posso ter Eu tenho fé em Deus Pra resolver qualquer problema [Primeira Parte] Bbm Ebm Eu nasci pobre mas não nasci otário Bbm Ebm Eu é que não caio no conto do vigário Bbm Ebm Eu tenho fé em Deus pra resolver qualquer parada Bbm Ebm Chega com respeito na minha quebrada [Quarta Parte] Riff 3 E|--------------------------16---- B|-16b17-16----14-16-----14------- G|----------15-------15~---------- D|-------------------------------- A|-------------------------------- E|-------------------------------- E|----------| B|----------| G|--~-------| D|----------| A|----------| E|----------| E|-------------------------------- B|-16b17-16----14-16-----14-16---- G|----------15-------15~---------- D|-------------------------------- A|-------------------------------- E|-------------------------------- E|----------| B|----------| G|--~-------| D|----------| A|----------| E|----------| Bbm Ebm Bbm Tamo aí na atividade Ebm Bbm Tamo aí na atividade Ebm Bbm Ebm Tamo aí na atividade [Quinta Parte] Bbm Me basta o que venha do surf F5 Me basta o que venha do skate Bbm Me basta o que venha do coração F5 Me basta o que venha da mente Bbm Me basta o que venha do surf F5 Me basta o que venha do skate Bbm Me basta o que venha do coração F5 Me basta o que venha da mente Bbm F5 Eles são gente mas não são gente como a gente Bbm F5 Eles são gente mas não são gente como a gente Bbm F5 O meu estilo de vida liberta minha Bbm F5 mente Bbm Eu sou completamente louco Mas um louco consciente!
Composição: Chorão / Luiz Carlos Jr. Leao Duarte / Marcão / PeladoColaboração e revisão: Thiago AlmeidaMarvin