A
123
X02220
A#
234
X13331
A5
12
X022XX
B
234
X24442
C#
234
X46664
D
123
XX0232
D#
234
X65343
E
123
022100
E5
12
022XXX
F#
234
244322
G
123
320003
G#
234
431114
G5
134
355XXX
Tom: G
Essa musica é muito facil, tem 
partes dificeis de serem tiradas
mas é mais ou menos isso!


Riff 1 - Guitarra um toca isso com 
uma distorção bem feia, depois entra
a outra gutiarra fazendo a mesma 
coisa!

eb:----------------------------------------------|
A#:--------14-----------14--------------14-------|
F#:--12-13----13--12-13----13-12--12-13----13-12-|
C#:----------------------------------------------|
G#:----------------------------------------------|
D#:----------------------------------------------|


Riff 2 - E5 - G5 - A5


Riff 3

eb:--------------------|
A#:--------------------|
F#:--------------------|
Db:-x-x-x-x--5-5-5--7--|
Ab:-x-x-x-x--5-5-5--7--|
Eb:-x-x-x-x--3-3-3--5--|

Riff 4

eb:--------------------------------------------12--|
A#:--------------------------------------------12--|
F#:--------------------------------------------12--|
C#:----------9-------------9------------9----------|
G#:--2-------7-----2-------7-----2------7----------|
D#:--0-0-0-0---0-0-0-0-0-0---0-0-0-0-0-0--0-0------|

Riff 5 - Abafado!!

eb:----------------------------------|
A#:----------------------------------|
F#:----------------------------------|
C#:----------------------------------|
G#:-----------12-----------12--------| D#:--12-12-14----14-12--14----14-12--| Riff 6 - Uma guitarra faz no intervalo desse riff a nota E5, ouça a musica e fica facil! eb:------------| A#:------------| F#:--------12--| C#:--12-13-----| G#:------------| D#:------------| Solo - Improvise, não tem melhor coisa do que improvisar!! Riff 7 e:-------| B:-------| G:-------| D:-5-----| A:-5--2--| E:-3--0--| Riff 1 Riff 2 Vaidade sua o mundo de lua Show biz agora é uma gang de rua Riff 3 Quando o cara é mané ele faz o que quer Se liga meu irmão essa mulher O que ela agüenta sorrindo você não agüenta nem gritando Riff 4 O cheiro da raposa deixou tremula a esposa do urubu malandro O jogo vira eu sei o que estou falando A força, força, força, a inteligência é minha força Riff 5 E a vontade de vencer está mais forte em mim agora Riff 6 Riff 2 É tudo filho da puta É tudo filho da puta É tudo filho da puta É tudo filho da puta Riff 3 No meio disso tudo eu não te iludo e não me iludo A pouco tempo atras eu era um pobre vagabundo Andava pela rua sem nenhum trocado Ia a pé pra toda lado Maltrapilho e maltratado Riff 4 Quem vai abrir pra mim as portas da Babilônia Mas quem vai abrir pra mim as portas da Babilônia Riff 5 Um governo falido não ajuda ninguém Hoje eles me fodem amanhã vou foder eles também Vão te foder também Aqui é a virada do Pelado! Vaidade sua o mundo de lua Show biz agora é uma gang de rua Riff 6 Solo - Base Riff 2 Riff 1 É tudo filha da puta Riff 7 Filha da puta.... Essa Música não é dicifil é sim chata de tirar, mas pra toca é uma delicia!
Composição: ChampignonColaboração e revisão: