Vinheta Beat Box II / Como Tudo Deve Ser (Pot-Pourri)

Charlie Brown Jr.

Tom: G
Vinheta Beat Box II:
Bm t K t Bm Bm K t Bm (Essa e a 
base, que fica durante os scratches)

Scratches:
Chewe-chi pes t-K t-K t-k bes (3x)
chewi-chi B t B B B chewi-chi B t 
Brown!

Intro:


Baixo

G|-------13----11h13-18--16-----
D|----11-------------16------18-
A|-12-------12------------------
E|------------------------------

G|------------------------16--14-
D|16-14-------16----14h16-14-----
A|------16-16----16--------------
E|-------------------------------

13h14p13-| 
---------| 
---------| 
---------| 



Baixo (desse jeito da pra tocar no violao)

e|--------------------------------
B|--------------------------------
G|---------------6----4-----------
D|------6---4h6--4--4---4-6-4-----
A|---4----4-------------------7-6-
E|-5------------------------------

e|-------------------------------| 
B|-------------------------------| 
G|-----------4----2---1-2-1------| 
D|--4---2h4--2--2---2------------| 
A|4---4--------------------------| 
E|-------------------------------| 



Solo da intro

e|--------------------------------
B|--------5-----------------------
G|--6--4---8--6-4---------------6-
D|----------------6-4-6----4--6---
A|-----------------------4--------
E|--------------------------------

e|---------------------------------
B|---------------------------------
G|-4-------4------6-----------4----
D|---6-4-6-----------4--6-6-4---6--
A|-------------7-------------------
E|---------------------------------

e|-------------------| 
B|----4-5-4----------| 
G|4-6-------6-4--4h6-| 
D|--------------6----| 
A|-------------------| 
E|-------------------| 



|-------9~------------| 
|-------9~----9h10-9--| 
|-/6----9~------------| 
|---------------------| 
|---------------------| 
|---------------------| 


Verso: O baixo fica como na 
introdução
       O violão fica fazendo um 
solinho em C#m

Um belo sonho veio então despertar 
minha vontade
tudo vale a pena para te reencontrar
me livrei de tudo aquilo e consegui 
mudar
tudo que foi feito em troca de uma
amizade a mais / mas felicidade é 
poder estar com
quem voce gosta em algum lugar, é 
foda
ser louco, advogado do mundo mas, 
como tudo deve ser?
é foda ser taxado de doido vagabundo
 mas, como tudo deve ser?

Refrão: Baixo G|------------------| D|-4--4-4--6-5--7/9-| A|------------------| E|------------------| Solinho do Refrão e|-------------------------------- B|-12-----12-----12-----9-----9--- G|----9-9----9-9----9-9---9-9---9- D|-------------------------------- A|-------------------------------- E|-------------------------------- e|-----| B|10---| G|---9-| D|-----| A|-----| E|-----| Foi quando te encontrei ouvindo um som e olhando o mar Foi quando te encontrei ouvindo o som do mar rolar Verso: Eu não nasci ontem, bem como, quando e por onde mas como tudo deve ser, com as balizas do nosso sistema Sigo imprimindo meu sonho na história como tudo deve ser Um belo sonho veio então despertar minha vontade Tudo vale a pena para te reencontrar Me livrei de tudo aquilo e consegui mudar Tudo que foi feito em troca de uma amizade mas (Refrão) Verso: Eu não preciso de promessas e acho que você também Eu não tento ser perfeito e acho que você também Dias e noites pensando no que fiz eu sou um vencedor eu lutei pelo que quis Mas quando não se pode mais mudar, tanta coisa errada Vamos viver nossos sonhos, temos tão pouco tempo (Refrão) Solo: e|------------------------------ B|-10/12-----10/9-------10/12--- G|----------------9~~-9--------- D|------------------------------ A|------------------------------ E|------------------------------ e|--------------------------------------------- B|10/9-------10/12---10/9---------------------- G|-----9~~-9---------------9~~----------------- D|--------------------------------------------- A|--------------------------------------------- E|--------------------------------------------- e|-------------------------------- B|----------------------12-------- G|---------9----9h11~~--11b--9---- D|-11-9h11---11----------------11- A|-------------------------------- E|-------------------------------- e|---------------------------------- B|--------------------12------------ G|------9-----9h11~~--11b--9-------- D|-9h11----11----------------11----- A|---------------------------------- E|---------------------------------- e|------------------------------ B|------------------------------ G|------------------------------ D|-9/11-----------9/11---------- A|------9-7h9----------9-7/9/7-- E|------------9----------------- e|-------------------------------------------- B|-------------------------------------------- G|----------------------8-9-11---------------- D|9/11------------9/11------------------------ A|------9-7h9--------------------------------- E|------------9------------------------------- e|-------------------------------- B|--10/12~~----10/9-------10/12--- G|------------------9~~-9--------- D|-------------------------------- A|-------------------------------- E|-------------------------------- e|---------------------------------- B|10/9-------10/12---10/9----------- G|-----9~~-9--------------9~~------- D|---------------------------------- A|---------------------------------- E|---------------------------------- e|-------------------------------- B|----------------------12-------- G|---------9----9h11~~--11b--9---- D|-11-9h11---11----------------11- A|-------------------------------- E|-------------------------------- e|---------------------------12--- B|-----------------------------12- G|------9-----9h11~~---11b13------ D|-9h11----11--------------------- A|-------------------------------- E|-------------------------------- e|----------- B|----------- G|11r13------ D|----------- A|----------- E|----------- e|-12-11----12-11----14-12-----14- B|-------9--------9--------12----- e|--------- B|--------- no ultimo refrão ele faz uma paradinha assim e|--16-------16-------16-------14- B|-----12-12----12-12----12-12---- G|-------------------------------- D|-------------------------------- A|-------------------------------- E|-------------------------------- e|------14----17----| B|12-12----12----12-| G|------------------| D|------------------| A|------------------| E|------------------| Foi quando te encontrei ouvindo o som e olhando o mar Foi quando te encontrei ouvindo o som do mar rolar
Composição: ChampignonsColaboração e revisão: Victor Oliveira