Vou Me Embriagar de Você

Charlie Brown Jr.

A5
12
X022XX
B5
134
X244XX
C
123
X32010
D5
134
X577XX
Em
12
022000
Tom: G
A afinação não precisa ser 
exatamente essa...vai da 
criatividade.


Introdução (Em, D5)


E|-0------0------0------0---------
B|-0------0------0------0---------
G|-0------7------0------7-0-7-0-7-
D|-2------7------2------7-0-7-0-7-
A|-2------5------2------5-5-5-5-5-
E|-0-------------0----------------

E|-| 
B|-| 
G|0| 
D|0| 
A|5| 
E|-| 


SOLO:


E|------------------------|-----
B|------------------------|-----
G|-----10----10h12h10-----|-----
D|--12----12----------12--|--12-
A|------------------------|-----
E|------------------------|-----

E|------------------------| 
B|------------------------| 
G|10----10h12h10----------| 
D|---12----------8888888--| 
A|------------------------| 
E|------------------------| 



E|------------------------|-----
B|------------------------|-----
G|--15-15-15-15-14-12-10--|--15-
D|------------------------|-----
A|------------------------|-----
E|------------------------|-----

E|-------------------| 
B|-------------------| 
G|15-15-15-14-12h17--| 
D|-------------------| 
A|-------------------| 
E|-------------------| 



E|------------------------|-----
B|------------------------|-----
G|--15-15-15-15-14-12-10--|--10-
D|------------------------|-----
A|------------------------|-----
E|------------------------|-----

E|-------------------| 
B|11-------11--------| 
G|---10-10----10-14--| 
D|-------------------| 
A|-------------------| 
E|-------------------| 



E|------------------------|-----
B|------------------------|-----
G|--15-15-15-15-14-12-10--|--15-
D|------------------------|-----
A|------------------------|-----
E|------------------------|-----

E|-------------------| 
B|-------------------| 
G|15-15-15-14-12h17--| 
D|-------------------| 
A|-------------------| 
E|-------------------| 



E|------------------------|-----
B|------------------------|-----
G|--15-15-15-15-14-12-10--|--10-
D|------------------------|-----
A|------------------------|-----
E|------------------------|-----

E|----------------------------------------| 
B|11-------11-----------------------------| 
G|---10-10----10-12-10-12-14-15-14-12-10--| 
D|----------------------------------------| 
A|----------------------------------------| 
E|----------------------------------------| 


Em                  D5
Quero voltar pra você
Em                  D5
Quero de volta o meu lugar
Em                  D5
Não sou feliz sozinho
Em                  D5
Não sei bem qual é o caminho
Em                  D5
Eu não vou a lugar nenhum sem você
Em                  D5
Não tenho lugar pra voltar
Em                  D5
Eu estive só, estive sozinho
Em                  D5
Quanto tempo foi perdido

C   B5       A5
Acende a luz
                           Em      
Que eu quero ver você aqui pra mim
                  D5

C      B5      A5        Em      D5
Essa é o dia que eu tanto esperei

C B5 A5 Esquece tudo agora Em D5 Só existe a gente aqui C B5 A5 Então se deite e me beije Em D5 E se solte muito mais Em D5 Vou me embriagar de você Em D5 Eu vou me embriagar de você Em D5 Vou me embriagar de você Em D5 Eu vou me embriagar de você Em D5 Quero voltar pra você Em D5 Quero de volta o meu lugar Em D5 Não sou feliz sozinho Em D5 Não sei bem qual é o caminho Em D5 Eu não vou a lugar nenhum sem você Em D5 Não tenho lugar pra voltar Em D5 Eu estive só, estive sozinho Em D5 Quanto tempo foi perdido C B5 A5 Acende a luz Em Que eu quero ver você aqui pra mim D5 C B5 A5 Em D5 Essa é o dia que eu tanto esperei C B5 A5 Esquece tudo agora Em D5 Só existe a gente aqui C B5 A5 Então se deite e me beije Em D5 E se solte muito mais Em D5 Vou me embriagar de você Em D5 Eu vou me embriagar de você Em D5 Vou me embriagar de você Em D5 Eu vou me embriagar de você Em D5 Sorrir, chorar, viver Em Tentar entender essas coisas D5 malucas da vida Em D5 Que bom que é ter você Em Você é a melhor coisa que eu tenho D5 na vida Em D5 Sorrir, chorar, viver Em Tentar entender essas coisas D5 malucas da vida Em D5 Que bom que é ter você Em Você é a melhor coisa que eu tenho D5 na vida Lembrando que fica show tocando todas as cordas... o ritmo é fácil.
Composição: Colaboração e revisão: Alison SouzaClaudio Juniorbruno gibsonedjan