Zóio de Lula

Charlie Brown Jr.

B5(9)
134
X246XX
C#m
234
X46654
G#m
34
466444
Tom: G
[Intro] C#m  G#m  
        C#m  G#m 
        C#m  G#m 
        C#m  G#m 

(Guitarra 1)

#1t1##1t2#E|-----4----------4----------4----------4-------------|
B|-----5----------5----------4----------4-------------|
G|-----6----------6----------4----------4-------------| (8x)
D|----------------------------------------------------|
A|----------------------------------------------------|
E|----------------------------------------------------|#/1t2##/1t1#

(Guitarra 2)

#2t1##2t2#E|-21......................---------------------------|
B|----------------------------------------------------|
G|----------------------------------------------------|
D|----------------------------------------------------|
A|----------------------------------------------------|
E|----------------------------------------------------|#/2t2##/2t1#

#3t1##3t2#E|-9~-----------------------------12~---------------9-|
B|-9~-----------------------------14~-------------9---|
G|-9~-----------------------------13~-----------------|
D|----------------------------------------------------|
A|----------------------------------------------------|
E|----------------------------------------------------|#/3t2##/3t1#

[Primeira Parte]

(Guitarra 2)

#4t1##4t2#E|---9~------------------------------12~--------------|
B|---9~------------------------------14~--------------|
G|---9~-------------4/6-4~-----------13~--------------| (2x)
D|------------4h6-------------------------------------|
A|----------------------------------------------------|
E|----------------------------------------------------|#/4t2##/4t1#

         C#m
Tirou a roupa entrou no mar
            G#m
Pensei meu Deus que bom que fosse
    C#m
Tu me apresenta essa mulher
       G#m                C#m
Meu irmão te dava até um doce
                   G#m
Sem roupa ela é demais
                     C#m
Também por isso eu creio em Deus

Meu Bom, Meu Deus
     G#m
Meu Bom, me trás

              C#m
Ainda bem que eu trouxe
             G#m
Até meu guarda-sol
       C#m
Tenho toda tarde
                G#m
Tenho a vida inteira
             C#m
Já se foi aquele tempo
              G#m
Da ladeira irmão
                 C#m
Já que se foi aquele tempo
              G#m
Da ladeira irmão

[Pré-Refrão]

#5t1#    C#m                              B5(9)
#5t2#E|--4-------------------------------------------------|
B|--4---------4-------4------------------2------------|
G|--6-----------6-------6------------------4----------|
D|--6-------------6-------6------------4-----4--------|
A|--4--------------------------------2----------------|
E|----------------------------------------------------|#/5t2##/5t1#

#6t1#    C#m                           B5(9)
#6t2#E|--4---------------------------------------4---------|
B|--4---------4-------4---------------5--7----5-------|
G|--6-----------6-------6---------4h6-----------6-----|
D|--6-------------6-------6---------------------------|
A|--4-------------------------------------------------|
E|----------------------------------------------------|#/6t2##/6t1#

          C#m
Meu escritório é na praia
       B5(9)
Eu tô sempre na área
            C#m              B5(9)
Mas eu não sou da tua láia não
          C#m
Meu escritório é na praia
       B5(9)
Eu tô sempre na área
            C#m                  B5(9)
Mas eu não sou daquela tua láia não

[Refrão]

#7t1#         C#m           B5(9)      C#m             B5(9)
#7t2#E|----------------------------------------------------|
B|----------------------------------------------------|
G|----------------------------------------------------|
D|-------------------------------------------------6--|
A|-------4-4-4---6-7-6------------4-4-4---6-7-6-------|
E|-4--7----------------7-7---4--7----------------7----|#/7t2##/7t1#

 C#m          B5(9)
Deixe viver, deixe ficar
 C#m             B5(9)
Deixe estar como está
 C#m          B5(9)
Deixe viver, deixe ficar
 C#m             B5(9)
Deixe estar como está

[Segunda Parte]

     C#m
Meu Deus me dê um motivo
         G#m
Pois eu pago tanto mico
C#m
Ela me ignora
        G#m
Na esperança eu ainda fico
    C#m
Eu tô fritando aqui eu vou entregar
       G#m
Não aguento mais
               C#m
Mas se eu não falar hoje
        G#m
Talvez nunca a veja mais

   C#m                  G#m
O dia passa horas se estendem
       C#m                      G#m
As pessoas ao redor nunca me entendem
   C#m                     G#m
O dia passa horas se estendem
       C#m                      G#m
As pessoas ao redor nunca me entendem, então

[Refrão]

 C#m          B5(9)
Deixe viver, deixe ficar
 C#m             B5(9)
Deixe estar como está
 C#m          B5(9)
Deixe viver, deixe ficar
 C#m             B5(9)
Deixe estar como está

 C#m          B5(9)
Deixe viver, deixe ficar
 C#m             B5(9)
Deixe estar como está
 C#m          B5(9)
Deixe viver, deixe ficar
 C#m             B5(9)
Deixe estar como está

[Solo] 

#8t1##8t2#E|-----------9----------------------------------------|
B|---------9---9--12--12b14~--------------------------|
G|--11b13---------------------------------------------|
D|----------------------------------------------------|
A|----------------------------------------------------|
E|----------------------------------------------------|#/8t2##/8t1#
 
#9t1##9t2#E|--11h12p11---------11h12p11-------------------------|
B|----------------------------12----------------------|
G|-------------------------------11--9--8-------------|
D|----------------------------------------------------|
A|----------------------------------------------------|
E|----------------------------------------------------|#/9t2##/9t1#

#10t1##10t2#E|----------4-------4h5p4-----------------------------|
B|----4h5h7---------------7---------------------------|
G|--4-------------------------------------------------|
D|----------------------------------------------------|
A|----------------------------------------------------|
E|----------------------------------------------------|#/10t2##/10t1#

#11t1##11t2#E|---4h5r4--------------------------------------------|
B|---------7-5-4h5p4---4------------------------------|
G|-------------------6---6p4---4-4h6------------------|
D|---------------------------6------------------------|
A|----------------------------------------------------|
E|----------------------------------------------------|#/11t2##/11t1#

[Segunda Parte]

   C#m                  G#m
O dia passa horas se estendem
       C#m                      G#m
As pessoas ao redor nunca me entendem
   C#m                     G#m
O dia passa horas se estendem
       C#m                      G#m
As pessoas ao redor nunca me entendem, então

[Primeira Parte]

         C#m
Tirou a roupa entrou no mar
            G#m
Pensei meu Deus que bom que fosse
    C#m
Tu me apresenta essa mulher
       G#m                C#m
Meu irmão te dava até um doce
                   G#m
Sem roupa ela é demais
                     C#m
Também por isso eu creio em Deus

Meu Bom, Meu Deus
     G#m
Meu Bom, me trás

              C#m
Ainda bem que eu trouxe
             G#m
Até meu guarda-sol
       C#m
Tenho toda tarde
                G#m
Tenho a vida inteira
             C#m
Já se foi aquele tempo
              G#m
Da ladeira irmão
                 C#m
Já que se foi aquele tempo
              G#m
Da ladeira irmão

[Pré-Refrão]

          C#m
Meu escritório é na praia
       B5(9)
Eu tô sempre na área
            C#m              B5(9)
Mas eu não sou da tua láia não
          C#m
Meu escritório é na praia
       B5(9)
Eu tô sempre na área
            C#m                  B5(9)
Mas eu não sou daquela tua láia não

[Refrão]

 C#m          B5(9)
Deixe viver, deixe ficar
 C#m             B5(9)
Deixe estar como está
 C#m          B5(9)
Deixe viver, deixe ficar
 C#m             B5(9)
Deixe estar como está

 C#m          B5(9)
Deixe viver, deixe ficar
 C#m             B5(9)
Deixe estar como está
 C#m          B5(9)
Deixe viver, deixe ficar
 C#m             B5(9)
Deixe estar como está

[Final] C#m  B5(9)
        C#m  B5(9)
        C#m  B5(9)
        C#m  B5(9)
Composição: Champignon / Chorão / Marcão / Renato Pelado / Thiago CastanhoColaboração e revisão: Getúlio Vasconcelosalessandro lemosMatheus lopesBreno e mais 6
Videoaula Zóio de Lula (aula de violão simplificada)