A#7
34
X13131
B
234
X24442
C#
234
X46664
D#m
1234
XX1342
Fm7(5-)
1234
XX3444
G#m
34
466444
Tom: G
[Intro] B  C#  D#m 
        B  C#  D#m 
        B  C#  D#m 
        B  C#  D#m 

#1t1##1t2#E|------------------------------------------|
B|--11-9-7-6--------------------------------|
G|-----------6---6h8------------------------|
D|-------------8----------------------------|
A|------------------------------------------|
E|------------------------------------------|#/1t2##/1t1#

#2t1##2t2#E|--------9---------------------------------|
B|------7---9/11-------------9--------------|
G|--6-8----------------10-11---11-----------|
D|------------------------------------------|
A|------------------------------------------|
E|------------------------------------------|#/2t2##/2t1#

#3t1##3t2#E|--------------------------9---------------|
B|--11-9-7-6--------------7---9/11-9--------|
G|-----------6---6h8--6-8------------11-6h8-|
D|-------------8----------------------------|
A|------------------------------------------|
E|------------------------------------------|#/3t2##/3t1#

[Primeira Parte]

 B       C#
Daylight
D#m            D#m
I wake up feeling like you won't 
  B       C#
Play right
D#m             D#m
I used to know but now, that shit don't 
B         C#
Feel right
D#m                      B   C#  D#m
It made me put away my pride

 B      C#
So long
 D#m            
You made a nigga wait for some
 B      C#
So long
 D#m                
You make it hard for a boy like that to 
  B        C#
Know wrong
D#m                            B       C#  D#m  
I'm wishing I could make this mine, oh

[Pré-Refrão]

        D#m       
If you want it, yeah
         G#m      
You can have it, oh, oh, oh
        Fm7(5-)       
If you need it, oooh
        D#m       
We can make it, oh
G#m      
If you want it
         A#7      
You can have it

[Refrão]

          B   C#
But stay woke
         D#m       
Niggas creepin'
           B      C#
They gon' find you
            D#m        
Gon' catch you sleepin' (oooh)
          B    C#
Now stay woke
         D#m       
Niggas creepin'
           B         C#       D#m
Now don't you close your eyes

[Segunda Parte]

 B       C#
Too late
 D#m             
You wanna make it right, but now it's 
 B       C#
Too late
 D#m              
My peanut butter chocolate cake with 
 B       C#
Kool-Aid
D#m                         B   C#  D#m  
I'm trying not to waste my time

[Pré-Refrão]

        D#m       
If you want it, yeah
         G#m      
You can have it, oh, oh, oh
        Fm7(5-)       
If you need it, oooh
        D#m       
We can make it, oh
G#m      
If you want it
         A#7      
You can have it

[Refrão]

          B   C#
But stay woke
         D#m       
Niggas creepin'
           B      C#
They gon' find you
            D#m        
Gon' catch you sleepin' (oooh)
          B    C#
Now stay woke
         D#m       
Niggas creepin'
           B         C#       D#m
Now don't you close your eyes

          B   C#
But stay woke
         D#m       
Niggas creepin'
           B      C#
They gon' find you
            D#m        
Gon' catch you sleepin' (oooh)
          B    C#
Now stay woke
         D#m       
Niggas creepin'
           B         C#       D#m
Now don't you close your eyes

[Final] B  C#  D#m
        B  C#  D#m

#4t1##4t2#E|----------------3b-1-3b-1-3-----------|
B|---------1-------------------3b-1-----|
G|-7---2-3---3b-------------------------|
D|--------------------------------------|
A|--------------------------------------|
E|--------------------------------------|#/4t2##/4t1#
Composição: Colaboração e revisão: Thiago AlmeidaLuiz SabinoGabriel Tomelerie mais 1