busca

Evidências

Chitãozinho & Xororó

Tom: C#m
[Intro] E  E5+  A  F#m  A/B
        E  E5+  A  E/G#  F#m  A/B
        E  A/B

[Primeira Parte]

           E                  B/D#
Quando eu digo que deixei de te amar
         C#m7    E7(9) E6  E7
É porque eu te amo
           A
Quando eu digo que não quero
      C#7
Mais você
   F#m
É porque eu te quero
          B7
Eu tenho medo de te dar meu
 
Coração
         C#m7
E confessar   que eu estou
         C#m7/B
Em tuas mãos
         F#         E/G#
Mas não posso imaginar
           F#/A#
O que vai ser de mim
             B      A/C#  B/D#
Se eu te perder um dia

[Segunda Parte]

         E
Eu me afasto e me defendo
    B/D#
De você
       C#m          E7(9) A7M A9
Mas depois me entrego
      A
Faço tipo, falo coisas que
    C#7
Eu não sou
     F#m
Mas depois eu nego
          B7
Mas a verdade é que sou
       
Louco por você
         C#m
E tenho medo de pensar
          Am
Em te perder
       E                       A/B
Eu preciso aceitar que não dá mais
                E4     E    E4  E A/B
Pra separar as nossas vidas

[Refrão]

E
E nessa loucura de dizer
Que não te quero
       G#
Vou negando as aparências
Disfarçando as evidências
          A
Mas pra que viver fingindo
           F#m
Se eu não posso enganar
         B7
Meu coração
    F#m       B7
Eu sei que te amo

  E
Chega de mentiras
De negar o meu desejo
        G#
Eu te quero mais que tudo
Eu preciso do seu beijo
       A
Eu entrego a minha vida
       F#m
Pra você fazer o que quiser
    B7
De mim
     F#m          B7
Só quero ouvir você dizer
     E
Que sim
              E5+
Diz que é verdade que tem
    A   E/G#
Saudade
    F#m         B7
Que ainda você pensa muito
    E
Em mim
              E5+
Diz que é verdade que tem
     A  ?E/G#
Saudade
    F#m          B7
Que ainda você quer viver

Pra mim

[Solo] C#m  C5+  E/B  F#/A#  Am  A/B

Parte 1 de 3

E|-16h17~-16~-12~-------------------------------------|
B|-----------------14~--14/19b20/21~------------------|
G|----------------------------------------------------|
D|----------------------------------------------------|
A|----------------------------------------------------|
E|----------------------------------------------------|

Parte 2 de 3

E|-16h17~-16~12~----19b21r19---19~--------------------|
B|----------------------------------------------------|
G|----------------------------------------------------|
D|----------------------------------------------------|
A|----------------------------------------------------|
E|----------------------------------------------------|

Parte 3 de 3

E|-15p12--------12p8--------8p5-----------------------|
B|-------13----------10---------5---------------------|
G|----------12-----------9--------5---7p5--4~---------|
D|----------------------------------------------------|
A|----------------------------------------------------|
E|----------------------------------------------------|

[Repete a Segunda Parte]

         E
Eu me afasto e me defendo
    B/D#
De você
     C#m            E7(9) E6  E7
Mas depois me entrego
      A
Faço tipo, falo coisas que
    C#7
Eu não sou
     F#m
Mas depois eu nego
          B7
Mas a verdade é que sou
       
Louco por você
         C#m
E tenho medo de pensar
          Am
Em te perder
       E                       A/B
Eu preciso aceitar que não dá mais
                E4     E    E4  E A/B
Pra separar as nossas vidas

[Refrão Final]

E
E nessa loucura de dizer
Que não te quero
       G#
Vou negando as aparências
Disfarçando as evidências
          A
Mas pra que viver fingindo
           F#m
Se eu não posso enganar
         B7
Meu coração
    F#m       B7
Eu sei que te amo

  E
Chega de mentiras
De negar o meu desejo
        G#
Eu te quero mais que tudo
Eu preciso do seu beijo
       A
Eu entrego a minha vida
       F#m
Pra você fazer o que quiser
    B7
De mim
     F#m          B7
Só quero ouvir você dizer
     E
Que sim
              E5+
Diz que é verdade que tem
    A   E/G#
Saudade
    F#m         B7
Que ainda você pensa muito
    E
Em mim
              E5+
Diz que é verdade que tem
     A  E/G#
Saudade
    F#m          B7
Que ainda você quer viver
     E
Pra mim
             E5+
Diz que é verdade que tem
     A  E/G#
Saudade
    F#m          B7
Que ainda você quer viver
     E
Pra mim

Clipes