Am
123
X02210
C
123
X32010
D
123
XX0232
D/F#
1234
2X0232
Dm
123
XX0231
F
234
133211
G
123
320003
G/B
123
X20033
Tom: G
[Intro] C  G/B  Dm  F  C 
        C  G/B  Dm  F  C 

[Violão 1 - Base]

#1t1#             C    G/B  Dm    F            C
#1t2#E|-----------0----3----1------------------------------|
B|-----------1----3----3------------------------------|
G|-----------0----0----2------------------------------|
D|-------0---2----0----0-----0-2-3-2-0----------0-----|
A|---0-3-----3----2-------------------------0-3---3---|
E|-3--------------------------------------3-----------|#/1t2##/1t1#

[Violão 2 - Solo] 

#2t1##2t2#E|------------8-7-5-7-5---5---------------------------|
B|----------------------8---8-6-8-6-5-6-5---5---------|
G|-----5-7-5------------------------------7---7-5-7-5-|
D|-5-7------------------------------------------------|
A|----------------------------------------------------|
E|----------------------------------------------------|#/2t2##/2t1#

#3t1##3t2#E|----------------------------------------------------|
B|---------------------5-5h6-5------------------------|
G|-5...--------------7---------7------5-7-5-----------|
D|-------------------------------5-7------------------|
A|----------------------------------------------------|
E|----------------------------------------------------|#/3t2##/3t1#

[Primeira Parte]

[Lick 1]

#4t1##4t2#E|----------------------------------------------------|
B|----------------------------------------------------|
G|----------------------------------------------------|
D|--0-2--2/3--2--0-------0----------------------------|
A|-------------------0-3---3--------------------------|
E|-----------------3----------------------------------|#/4t2##/4t1#

C                     G/B        Dm      F
  Quanto tempo o coração, leva pra saber
C                     G/B       Dm  F
  Que o sinônimo de amar, é sofrer
C                G/B                 Dm    F
  Num aroma de amores, pode haver espinhos
C                     G/B                  Dm   F
  É como ter mulheres em milhões, e ser sozinho

[Segunda Parte]

[Lick 2]

#5t1#                                        G
#5t2#E|--------------------------------------3-------------|
B|--------------------------------------3-------------|
G|--------------------------------------0-------------|
D|0-2-3---/5--3-2-0---------------------0-------------|
A|-------------------3-2--0-------------2-------------|
E|--------------------------3--1--0-1-3-3-------------|#/5t2##/5t1#

#6t1##6t2#E|----8-7-5-7-5---5-----------------------------------|
B|--------------8---8-6-8-6-5-6h8-6-5-----------------|
G|------------------------------------7---------------|
D|----------------------------------------------------|
A|----------------------------------------------------|
E|----------------------------------------------------|#/6t2##/6t1#

G               F           G   F 
 Na solidão de casa, descansar
G               Dm          C
  O sentido da vida, encontrar
G/B                              Dm         F
   Quem pode dizer onde a felicidade, está?

[Refrão]

C                       G/B                     Dm
  O amor é feito de paixões e quando perde a razão
     F         G        C
Não sabe quem vai machucar
                      G/B                     Dm
Quem ama nunca sente medo de contar o seu segredo
   F          G         C  D
Sinônimo de amor é amar

[Terceira Parte]

[Lick 4]

#7t1##7t2#E|---------7-5----------------------------------------|
B|--8---7------8-7-5-7-8------------------------------|
G|----------------------------------------------------|
D|----------------------------------------------------|
A|----------------------------------------------------|
E|----------------------------------------------------|#/7t2##/7t1#

[Lick 5]  
           
#8t1##8t2#E|----------------------------------------------------|
B|----------------------------------------------------|
G|---------------0-2-0--------------------------------|
D|-----------0-2--------------------------------------|
A|0-2-3-2-0-------------------------------------------|
E|----------------------------------------------------|#/8t2##/8t1#

G                     D/F#       Am      C
  Quem revelará o mistério, que tenha fé
G                      D/F#                     Am  C
  E quantos segredos traz, o coração de uma mulher
G                      D/F#                   Am  C
  Como é triste a tristeza, mendigando um sorriso
G                       D/F#                    Am   C
  Um cego procurando a luz, na imensidão do paraíso

[Quarta Parte]

[Lick 6]

#9t1##9t2#E|----------------------------------------------------|
B|----------------------------------------------------|
G|----------------------------------------------------|
D|-7-9-9/10---12-10-9-7-5-4-0-2-0---------------------|
A|--------------------------------3-0-3-5-------------|
E|----------------------------------------------------|#/9t2##/9t1#

[Lick 7]

#10t1##10t2#E|-10-8-7-8-7---7-------------------------------------|
B|-----------10---10-8-10-8-7-10-8-7-5----------------|
G|----------------------------------------------------|
D|----------------------------------------------------|
A|----------------------------------------------------|
E|----------------------------------------------------|#/10t2##/10t1#

D                   Am        D    C
  Quem tem amor na vida, tem sorte
D                 Am                 G
  Tem a fraqueza sabe, ser bem mais forte
     D/F#                        Am        C
Ninguém sabe dizer onde a felicidade, está

[Refrão]

G                      D/F#                    Am
 O amor é feito de paixões e quando perde a razão
     C         D        G
Não sabe quem vai machucar
                      D/F#                    Am
Quem ama nunca sente medo de contar o seu segredo
   C          D      G
Sinônimo de amor é amar

G                      D/F#                    Am
 O amor é feito de paixões e quando perde a razão
     C         D        G
Não sabe quem vai machucar
                      D/F#                    Am
Quem ama nunca sente medo de contar o seu segredo
   C          D      G
Sinônimo de amor é amar

[Solo] G  D  Am  C  G  Dm  F  G

#11t1##11t2#E|-10-10-10------10-----10-----10-----10-----10...----|
B|-----------7-8----7-8----7-8----7-8----7-8---...----|
G|----------------------------------------------------|
D|----------------------------------------------------|
A|----------------------------------------------------|
E|----------------------------------------------------|#/11t2##/11t1#

#12t1##12t2#E|--8--8--7-7--5-5--3-3--0-0---5-5-5-5---5---7-5------|
B|-10-10--8-8--7-7--5-5--1-1------------8--8-----8-8--|
G|----------------------------------------------------|
D|----------------------------------------------------|
A|----------------------------------------------------|
E|----------------------------------------------------|#/12t2##/12t1#

#13t1##13t2#E|----------7-8-7---7---------------------------------|
B|--------8-------8---8-10----------------------------|
G|------7------------------10-10-9-9-7-7--------------|
D|----9----------------------------------7p5----------|
A|-10----------------------------------------8-7-5-8p7|
E|----------------------------------------------------|#/13t2##/13t1#

#14t1##14t2#E|-----------------5----------------------------------|
B|-------------------8-6-5-----6-5--------------------|
G|-------------5-7---------7-5-----7-5-4-7-5----------|
D|-------3-5/7----------------------------------------|
A|-5-8------------------------------------------------|
E|----------------------------------------------------|#/14t2##/14t1#

[Terceira Parte]

C                     G          Dm      F
  Quem revelará o mistério, que tenha fé
C                      G                        Dm  F
  E quantos segredos traz, o coração de uma mulher
C                     G                     Dm       F
  Como é triste a tristeza, mendigando um sorriso
C                       G                       Dm   F
  Um cego procurando a luz, na imensidão do paraíso

[Refrão]

C                       G/B                     Dm
  O amor é feito de paixões e quando perde a razão
     F         G        C
Não sabe quem vai machucar
                      G/B                     Dm
Quem ama nunca sente medo de contar o seu segredo
   F          G         C 
Sinônimo de amor é amar

C                       G/B                     Dm
  O amor é feito de paixões e quando perde a razão
     F         G        C
Não sabe quem vai machucar
                      G/B                     Dm
Quem ama nunca sente medo de contar o seu segredo
   F          G      C 
Sinônimo de amor é amar
Composição: César Augusto / Cláudio Noam / Paulo SérgioColaboração e revisão: Getúlio VasconcelosMateus MossmannMatheus LopesFernando Cóvose mais 8
Videoaula Sinônimos - Solos - Parte 1