Super Hip Hop

Choice

F7M
1234
1X221X
Tom: G
[Intro]


E|---------------------------8--7-
B|------------------10------------
G|--10--10--9---------------------
D|--------------------------------
A|--------------------------------
E|--------------------------------

E|-7-----------------| 
B|-------------------| 
G|-----9-------------| 
D|-------------10----| 
A|-------------------| 
E|-------------------| 



E|---------------------------8--7-
B|------------------10------------
G|--10--10--9---------------------
D|--------------------------------
A|--------------------------------
E|--------------------------------

E|-7--7--7------------| 
B|--------------------| 
G|--------------------| 
D|--------------------| 
A|--------------------| 
E|--------------------| 


( F7M )

Ham!
Sigo na cena sendo perseguido
Sigo na soma pra minha zona ter um 
futuro digno
O mal? O bem? eu sou o mal benigno
Vocês são o câncer do rap, eu não 
falo de signo
O brilho mais forte do céu me chame 
de Antares
Cuspi no prato antes de servir os 
seus jantares
Servi vocês para os lobos me 
agradeceram com olhares
Eles sentiram o gosto de medo em 
seus paladares

Ham! Ham! Temos tudo que precisamos, nós mesmos, o que estamos esperando? Vemos tudo o que observamos os mesmos que nós estávamos caçando Ha! Tipo assassino de Kennedy, nunca serei pego mas sempre serei lembrado Também como demolidor, eu nunca serei cego mas tenho exemplo o do meu lado Cocaine, sendo vendida pra boy deprimido, ou velho depravado que vive no próprio umbigo Ou Mc de Privada frustado comigo a culpa não é minha seu nariz é seu pior inimigo A muitos anos os Deuses me observam com atenção, tempo suficiente pra saber que eu sou o perigo Por isso eu escapo do seu campo de observação, com a atenção e a precisão de um sniper escondido Mate todos eles é o que as vozes dizem, ignore as vozes ou se torne tudo que essas vozes dizem Na rua as pessoas são ferozes e agem como atrizes não acredite no que elas dizem Temos tudo que precisamos, nós mesmos, o que estamos esperando? Vemos tudo que observamos os mesmos que nós estávamos matando Vou acabar com esses Dogmas mas quebrando seus padrões Vocês usam branca de neve pra se transformar em anões Elétricos como transformador, eu vim transformar a dor em amor pra depois cuspir em canções Cães são, e com destreza eu adestro, bom de natureza, tipo o Messi, só que destro Atento nos movimentos de todos os jogadores Sem tirar a bola dos pés e nem dar atenção pro resto Pro meu eu pai eu vi sigo cantando em braile Cantando em baile pros menor larga o fuzil e fazer frysteely Os menorzinho me chama de super choque, super herói da realidade Super Hip Hop, Super hip pop Dreadlock nos racistas raça maldita não acredito que ainda exista Ham! Andando bem atento na pista, na cena os primeiros a cair são os que se acham mais pika! Temos tudo que precisamos, nós mesmos, o que estamos esperando? Vemos tudo que observamos os mesmos que nos estávamos matando
Composição: MC ChoiceColaboração e revisão: Ulysses Verza