busca

Debaixo do Tapete (part. Israel & Rodolffo)

Cleber e Cauan

Tom: Em
[Intro]  G  D  Em  C  Cm

E|------------------------------------------|
B|----3-3------3-3------3-3---3h5-3~--------|
G|--------------------------4---------------|
D|-/5--------5--------5---------------------|
A|------------------------------------------|
E|------------------------------------------|

E|------------------------------------------|
B|----3-3------3-3------3-3---3h5-3~--------|
G|--------------------------4---------------|
D|-/5--------5--------5---------------------|
A|------------------------------------------|
E|------------------------------------------|

E|------------------------------------------|
B|-8-8-8-7-5~~---8-8-8-7-5-5-3-3h5-5-3-1----|
G|---------------------------------------5--|
D|------------------------------------------|
A|------------------------------------------|
E|------------------------------------------|

E|------------------------------------------|
B|----3-4--3h4p3----------------------------|
G|--5------------5~-------------------------|
D|------------------------------------------|
A|------------------------------------------|
E|------------------------------------------|

G
O café ta sem graça
                  D
O vinho com queijo não tem mais sabor
                       Am
Aqui tem tudo e tá faltando amor
                       C         Cm
Aqui tem tudo e tá faltando amor

            G
A gente trocou uma cama cheia
Por duas vazias
            D
A gente pensou que era melhor sozinho
Olha nós sem bom dia
   Am
E ai já se recuperou
Agora que a raiva passou
           C
Já dá pra voltar
                D
E se quiser voltar

    G
A chave tá debaixo do tapete
               D
Eu já pedi sorvete, o filme ta rolando
                      Em
Você chega e a gente volta pro começo
E faz amor gostoso
  C                             D
Trás só a saudade e a roupa do corpo
    G
A chave tá debaixo do tapete
               D
Eu já pedi sorvete, o filme ta rolando
                      Em
Você chega e a gente volta pro começo
E faz amor gostoso
  C                             D
Trás só a saudade e a roupa do corpo

( G  D  Em  C  Cm )

G
O café ta sem graça
                  D
O vinho com queijo não tem mais sabor
                       Am
Aqui tem tudo e tá faltando amor
                       C         Cm
Aqui tem tudo e tá faltando amor

            G
A gente trocou uma cama cheia
Por duas vazias
            D
A gente pensou que era melhor sozinho
Olha nós sem bom dia
   Am
E ai já se recuperou
Agora que a raiva passou
           C
Já dá pra voltar
                D
E se quiser voltar

    G
A chave tá debaixo do tapete
               D
Eu já pedi sorvete, o filme ta rolando
                      Em
Você chega e a gente volta pro começo
E faz amor gostoso
  C                             D
Trás só a saudade e a roupa do corpo
    G
A chave tá debaixo do tapete
               D
Eu já pedi sorvete, o filme ta rolando
                      Em
Você chega e a gente volta pro começo
E faz amor gostoso
  C                             D
Trás só a saudade e a roupa do corpo

    G
A chave tá debaixo do tapete
               D
Eu já pedi sorvete, o filme ta rolando
                      Em
Você chega e a gente volta pro começo
E faz amor gostoso
  C                             D
Trás só a saudade e a roupa do corpo

[Final]  G

E|------------------------------------------|
B|----3-3------3-3--------------------------|
G|------------------------------------------|
D|-/5--------5------------------------------|
A|------------------------------------------|
E|------------------------------------------|

Clipes

Cifra Club Pro

Aproveite o Cifra Club com benefícios exclusivos e sem anúncios
Cifra Club Pro
Aproveite o Cifra Club com benefícios exclusivos e sem anúncios