busca

Pedaço Meu (part. Jorge)

Cleber e Cauan

Tom: A
[Intro] A  C#m  D  Dm

[Solo]

E|-------------------12----12-----|
B|---7-10-10-9/10-------9-----7---|
G|-9------------------------------|
D|--------------------------------|
A|--------------------------------|
E|--------------------------------|

E|----------------10-9-7----------|
B|--------------------------10/12-|
G|-7-7/9--11-7--------------------|
D|--------------------------------|
A|--------------------------------|
E|--------------------------------|

A
Numa garrafa de cerveja
              C#m
Tinha que vir escrito: perigo!
D                              E
Porque toda vez que eu bebo, te ligo
A                                   C#m
E no meu telefone, tinha que ter um sensor
D                                              E
Para desligar na minha cara, na minha cara que quebrou 
              D         E
E por falar em quebrado
          A  
Tem pedaço meu em cada bar 
           C#m
Tem pedaço meu em cama de alugar
           D
Tem pedaço do meu coração para todo canto
            Dm
Só um beijo seu para sair juntando

Clipes

Cifra Club Pro

Aproveite o Cifra Club com benefícios exclusivos e sem anúncios
Cifra Club Pro
Aproveite o Cifra Club com benefícios exclusivos e sem anúncios