busca

Quase

Cleber e Cauan

Tom: B
[Intro] B

[Primeira Parte]

        E
Ela tentou
                             F#
Usar uma roupa parecida, tentou
                             D#m7
O mesmo corte de cabelo, tentou
                    G#m7
Vou te contar aonde ela errou

       E
Ela errou
                            F#
Quando o beijo não me arrepiou
                               D#m7
Quando o abraço dela não encaixou
                       G#m7
O erro dela é não ser você

[Dedilhado Primeira Parte]

Parte 1 de 4

   E
E|---------0--------------0-----------------|
B|-----0---0---0------0---0---0-------------|
G|-----1-------1------1-------1-------------|
D|---2---2---2------2---2---2---------------|
A|------------------------------------------|
E|-0--------------0-------------------------|

Parte 2 de 4

   F#
E|---------2--------------2-----------------|
B|-----2---2---2------2---2---2-------------|
G|-----3-------3------3-------3-------------|
D|---4---4---4------4---4---4---------------|
A|------------------------------------------|
E|-2--------------0-------------------------|

Parte 3 de 4

   D#m7
E|---------6--------------6-----------------|
B|-----7---7---7------7---7---7-------------|
G|-----6-------6------6-------6-------------|
D|---8---8---8------8---8---8---------------|
A|-6--------------6-------------------------|
E|------------------------------------------|

Parte 4 de 4

   G#m7
E|---------4--------------4-----------------|
B|-----4---4---4------4---4---4-------------|
G|-----4-------4------4-------4-------------|
D|---4---4---4------4---4---4---------------|
A|------------------------------------------|
E|-4--------------0-------------------------|

[Pré-refrão]

             E
Ela quase ficou entre você e eu
               F#
Mas eu disse quase, só quase, entendeu
               D#m7
E pra te explicar a distância do quase
              G#m7                 E
É tipo ida e volta daqui até Marte

[Refrão]

    F#                  B9
Se Deus fez outra de você
                      C#m
Tá decorando a casa d'Ele
                       E
Ele não vai deixar descer
                       B9
É uma minha, a outra d'Ele

                       C#m
Se Deus fez outra de você
                      G#m
Tá decorando a casa d'Ele
                       E
Ele não vai deixar descer
                       B9
É uma minha, a outra d'Ele

[Base Solo]

E  F#  B9  E  F#

[Solo]

Parte 1

E|----14-14-11--------14-14-11-11----------------------|
B|-------------12--------------------------------------|
G|-11--------------11----------------------------------|
D|-----------------------------------------------------|
A|-----------------------------------------------------|
E|-----------------------------------------------------|

Parte 2

E|----14-14-11--------------11-------------------------|
B|-------------12-----12-------14----------------------|
G|-11--------------13----13----------------------------|
D|-----------------------------------------------------|
A|-----------------------------------------------------|
E|-----------------------------------------------------|

[Primeira Parte]

        E
Ela tentou
                             F#
Usar uma roupa parecida, tentou
                             D#m7
O mesmo corte de cabelo, tentou
                    G#m7
Vou te contar aonde ela errou

       E
Ela errou
                            F#
Quando o beijo não me arrepiou
                               D#m7
Quando o abraço dela não encaixou
                       G#m7
O erro dela é não ser você

[Pré-refrão]

             E
Ela quase ficou entre você e eu
               F#
Mas eu disse quase, só quase, entendeu
               D#m7
E pra te explicar a distância do quase
              G#m7                 E
É tipo ida e volta daqui até Marte

[Refrão Final]

    F#                  B9
Se Deus fez outra de você
                      C#m
Tá decorando a casa d'Ele
                       E
Ele não vai deixar descer
                       B9
É uma minha, a outra d'Ele

                        C#m
Se Deus fez outra de você
                      G#m
Tá decorando a casa d'Ele
                       E
Ele não vai deixar descer
                       B9
É uma minha, a outra d'Ele

E   F#                B9
  É uma minha outra d'Ele
                   E
Não vai deixar descer
  F#                    B  B9
É uma minha outra d'Ele

Clipes

Cifra Club Pro

Aproveite o Cifra Club com benefícios exclusivos e sem anúncios
Cifra Club Pro
Aproveite o Cifra Club com benefícios exclusivos e sem anúncios