busca

TBT

Cleber e Cauan

Tom: C
[Intro]  F  G  Am

Parte 1 de 3

E|---------------------------------|
B|-5-5-5--5-5-5-------5-5----------|
G|--------------5---5--------------|
D|----------------7----------------|
A|---------------------------------|
E|---------------------------------|

Parte 2 de 3

E|---------------------------------|
B|-5h6p5-------5-5--5h6h5-------5--|
G|-------5---5------------5---5----|
D|---------7----------------7------|
A|---------------------------------|
E|---------------------------------|

Parte 3 de 3

E|---------------------------------|
B|-5-5-5--5-5-6-5-6-5--------------|
G|---------------------------------|
D|--------------------7~-----------|
A|---------------------------------|
E|---------------------------------|

[Primeira Parte]

                  F
No boteco sem dinheiro
                    G
É só pra passar vontade
           Am
Comanda vazia não mata saudade
                 F
Celular descarregado
               G
À prova de recaídas
             Em
Quero ver ligar
                 Am
Com zero de bateria

[Pré-Refrão]

     F                  G
Lembrar, até que eu lembro
    Am
Sofrer, até que eu sofro
                     F
Não tem pra onde correr
                   G
Deu vontade de voltar
                         F   G
De voltar pro boteco de novo

[Refrão]

                C
Hoje é dia de TBT
            G
Tô bebendo todas
                  Am
E lembrando de você
                F
Mas chorando aqui
Só tem o violão
C              G
  Cada recordação
              F  G
Apago com litrão

                F
Hoje é dia de TBT
            G
Tô bebendo todas
                  Am
E lembrando de você
                F
Mas chorando aqui
Só tem o violão
C              G
  Cada recordação
              F
Apago com litrão
    G
Sofrer assim até que é bão

( C  F  G  Am )

Parte 1 de 3

E|---------------------------------|
B|-5-5-5--5-5-5-------5-5----------|
G|--------------5---5--------------|
D|----------------7----------------|
A|---------------------------------|
E|---------------------------------|

Parte 2 de 3

E|---------------------------------|
B|-5h6p5-------5-5--5h6h5-------5--|
G|-------5---5------------5---5----|
D|---------7----------------7------|
A|---------------------------------|
E|---------------------------------|

Parte 3 de 3

E|---------------------------------|
B|-5-5-5--5-5-6-5-6-5--------------|
G|---------------------------------|
D|--------------------7~-----------|
A|---------------------------------|
E|---------------------------------|

[Primeira Parte]

                  F
No boteco sem dinheiro
                    G
É só pra passar vontade
           Am
Comanda vazia não mata saudade
                 F
Celular descarregado
               G
À prova de recaídas
             Em
Quero ver ligar
                 Am
Com zero de bateria

[Pré-Refrão]

     F                  G
Lembrar, até que eu lembro
    Am
Sofrer, até que eu sofro
                     F
Não tem pra onde correr
                   G
Deu vontade de voltar
                         F   G
De voltar pro boteco de novo

[Refrão]

                C
Hoje é dia de TBT
            G
Tô bebendo todas
                  Am
E lembrando de você
                F
Mas chorando aqui
Só tem o violão
C              G
  Cada recordação
              F  G
Apago com litrão

                C
Hoje é dia de TBT
            G
Tô bebendo todas
                  Am
E lembrando de você
                F
Mas chorando aqui
Só tem o violão
C              G
  Cada recordação
              F
Apago com litrão

                C
Hoje é dia de TBT
            G
Tô bebendo todas
                  Am
E lembrando de você
                F
Mas chorando aqui
Só tem o violão
C              G
  Cada recordação
              F
Apago com litrão

    G                      C  Am
Sofrer assim até que é bão

[Final

E|---------------------------------|
B|-5-5-5--5-5-6-5-6-5--------------|
G|---------------------------------|
D|--------------------7-7~---------|
A|---------------------------------|
E|---------------------------------|

Clipes

Cifra Club Pro

Aproveite o Cifra Club com benefícios exclusivos e sem anúncios
Cifra Club Pro
Aproveite o Cifra Club com benefícios exclusivos e sem anúncios